Sound will begin in 5 seconds

Totalmente Dependente

01234567891011121314151617181920212223
E
B
G
D
A
E
B
0 1 2 3 4 5 6 7 8 9 10 11 12 13 14 15 16 17 18 19 20 21 22 23
Song Science #1: How Pros Use 6 Chords to Write Hit Songs
(/) Slide Up  (\) Slide Down  (h) Hammer On  (p) Pull Off  (b) Bend (r) Release (v) Vibrato

Stave 1:

E|--------------------------------------------------------------------------
B|--------------------------------------------------------------------------
G|--------------------------------------------------------------------------
D|--------7----------9/11-------11--9----------9--11----9--7----------9/11--
A|-----7-------7--9----------9--------------7-------------------7--9--------
E|--9------------------------------------9----------------------------------

Stave 2:

E|----------------------------------
B|----------------------------------
G|----------------------------------
D|----11--11h12--11--9--------------
A|----------------------9----7------
E|----------------------------------

Stave 3:

E|-------------------------------
B|-------------------------------
G|-----------2-------------------
D|-----2--4----------------------
A|--4-------------------0--------
E|----------------2--4-----2--0--

Stave 4:

E|-------------------------------------------------------------------------------------------------------
B|-------------------------------------------------------------------------------------------------------
G|-------------------------------------------------------------------------------------------------------
D|----------------------------------------------------------------------------------10h11--10h11--9------
A|------------------------------------------------------------12--12--12--12----12-------------------12--
E|----2--2--2--2--14--14--14--14--12--12--12--12--7--7--7--7---------------------------------------------

Stave 5:

E|------------------------------------------------------------
B|------------------------------------------------------------
G|------------------------------------------------------------
D|------------------------------------------------9--9--9--9--
A|--------------------16--16--16--16-----------9--------------
E|----14--14--14--14------------------7--7--7-----------------

Stave 6:

E|--------------------------------------------------------------
B|--------------------------------------------------------------
G|--------------------------------------------------------------
D|--------------------------------------------------------------
A|-----------------------1--3--3--3--3--5--5--5--5--1--1--1--1--
E|--1--1--1--1--1--3--5-----------------------------------------

http://www.guitartabcreator.com
Guitar Tab Creator is intended to store guitar tab created through the tool. It currently does not support in-line text editing. Any text you place in here will be lost. If you need to comment on your tab, please use the "Tab Notes" section located below.