Sound will begin in 5 seconds

Mohair Mountain Grade 6 Bars 5/6

01234567891011121314151617181920212223
E
B
G
D
A
E
B
0 1 2 3 4 5 6 7 8 9 10 11 12 13 14 15 16 17 18 19 20 21 22 23
Song Science #1: How Pros Use 6 Chords to Write Hit Songs
(/) Slide Up  (\) Slide Down  (h) Hammer On  (p) Pull Off  (b) Bend (r) Release (v) Vibrato

Stave 1:

E|------------------------9---------------------------
B|----------------10--12-----12--10--10---------------
G|---------9--11-------------------------11-----------
D|--9--11---------------------------------------------
A|----------------------------------------------------
E|----------------------------------------------------

Stave 2:

E|-----------------9--12--9--7-----------------
B|---------10--12---------------8--------8--7--
G|--9--11--------------------------7--9--------
D|---------------------------------------------
A|---------------------------------------------
E|---------------------------------------------

Stave 3:

E|----------------------------------------------------------------------------------------------|--|-----
B|-----6------------8--10-------------9--7--9--6------------------------------------------------|--|-----
G|--------10--9--7---------12-------------------------------------------------------------------|--|-----
D|-----------------------------10--7--------------8--5-----------------------------5--7--8--10--|--|-----
A|--5---------------------------------------------------7--5--4--2-----------4--7---------------|--|-----
E|------------------------------------------------------------------4--6--7---------------------|--|-----

Stave 4:

E|-----------9-----7--------------------------------10----------------------10---------7--
B|--------7-----9---------------12----------10--11------9-----------------------7--11-----
G|-----9--------------7-----10----------12-----------------7------7--9--12----------------
D|--7--------------------9----------12------------------------12--------------------------
A|----------------------------------------------------------------------------------------
E|----------------------------------------------------------------------------------------

Stave 5:

E|----------------------------------------------------------------
B|---------7---------------------------7--------------------------
G|-----11---------7-----10--11--7--10--------10------7------------
D|--9---------11-----7--------------------9------11-----7--9--11--
A|----------------------------------------------------------------
E|----------------------------------------------------------------

Stave 6:

E|------------------------------10-----7-----------10------
B|--------------------9--10--8------7--------7--9------10--
G|--9--7----------------------------------9----------------
D|--------9--7---------------------------------------------
A|--------------9--7---------------------------------------
E|---------------------------------------------------------

http://www.guitartabcreator.com
Guitar Tab Creator is intended to store guitar tab created through the tool. It currently does not support in-line text editing. Any text you place in here will be lost. If you need to comment on your tab, please use the "Tab Notes" section located below.