partia Ray'a

Chords

01234567891011121314151617181920212223
E
B
G
D
A
E
B
0 1 2 3 4 5 6 7 8 9 10 11 12 13 14 15 16 17 18 19 20 21 22 23
(/) Slide Up  (\) Slide Down  (h) Hammer On  (p) Pull Off  (b) Bend (r) Release (v) Vibrato


E|--10--10------------------------------------------------------------------------------------
B|----------10--9--8--6--8--8--6--8--10----------9--8--------------------------------8--8-----
G|---------------------------------------10--10--------10--7--7--7--10--7--7--7--10-----------
D|--------------------------------------------------------------------------------------------
A|--------------------------------------------------------------------------------------------
E|--------------------------------------------------------------------------------------------



E|-------------------------------------------
B|------10-------------9--9--8--8------------
G|--10------7--10--10--------------10--7--7--
D|-------------------------------------------
A|-------------------------------------------
E|-------------------------------------------
							http://www.guitartabcreator.com
[[".",".",".",".",".",".",".",".",".",".",".","."],[".",".",".",".",".",".",".",".",".",".",".","."],[".",".",".",".",".",".",".",".",".",".",".","."],["10",".","7","10","10",".",".",".",".","10","7","7"],[".","10",".",".",".","9","9","8","8",".",".","."],[".",".",".",".",".",".",".",".",".",".",".","."]]

Member for

8 years 8 months
Submitted by pawelkl on Thu, 2011-09-08 02:58