Sound will begin in 5 seconds

Patrick's Song

01234567891011121314151617181920212223
E
B
G
D
A
E
B
0 1 2 3 4 5 6 7 8 9 10 11 12 13 14 15 16 17 18 19 20 21 22 23
Song Science #1: How Pros Use 6 Chords to Write Hit Songs
(/) Slide Up  (\) Slide Down  (h) Hammer On  (p) Pull Off  (b) Bend (r) Release (v) Vibrato

Stave 1:

E|------------10--8--7h8h7-----7--------7--------5-----8--7--5h7h5-----5-----3--
B|---------8--8----------------7--------7--------5---------------------3-----3--
G|------9-----9----------------7--7-----7--7-----5--5------------------4-----4--
D|--10--------10------------9--------9--------7---------------------5-----5-----
A|------------------------------------------------------------------------------
E|------------------------------------------------------------------------------

Stave 2:

E|-----0-----1h3h1--0-----0----0--3h5h3--0-----0----0--1h3p1--0-----0----0----5----7-----
B|-----1---------------0--1----3------------0--3----1------------0--1----3----5----7-----
G|-----2--2---------------2----4---------------4----2---------------2----4----5----7-----
D|--3---------------------3/5--5---------------5\3--3---------------3/5--5/7--7/9--9/10--
A|---------------------------------------------------------------------------------------
E|---------------------------------------------------------------------------------------

Stave 3:

E|---------0-----10--8--7h8h7-----7--------7--------5-----8--7--5h7h5-----5-----3--
B|---------8----------------------7--------7--------5---------------------3-----3--
G|------9-----9-------------------7--7-----7--7-----5--5------------------4-----4--
D|--10-------------------------9--------9--------7---------------------5-----5-----
A|---------------------------------------------------------------------------------
E|---------------------------------------------------------------------------------

Stave 4:

E|-----0-----1h3h1--0-----0--0--0--3h5h3--0-----0--0--0--1h3h1--0-----0----0----5----7-----
B|-----1---------------0--1--3--3------------0--3--1--1------------0--1----3----5----7-----
G|-----2--2---------------2--4--4---------------4--2--2---------------2----4----5----7-----
D|--3---------------------3--5--5---------------5--3--3---------------3/5--5/7--7/9--9/10--
A|-----------------------------------------------------------------------------------------
E|-----------------------------------------------------------------------------------------

Stave 5:

E|------------8--10/12--10--0--------5-----8--7--5--0--------0-----3--1--3/5--3--------0-----3/5--7/8--
B|---------8-------------------------5-----------------------1-------------------------3---------------
G|------9-------------------------5-----5-----------------2-----2-------------------4-----4------------
D|--10-------------------------7-----------------------3-------------------------5---------------------
A|-----------------------------------------------------------------------------------------------------
E|-----------------------------------------------------------------------------------------------------

Stave 6:

E|------------8--10/15-----------5/8--7--5h7p5--------0-----3--1--3/5--3--------0-----5--3--5/7--5--
B|---------8------------------5-----------------------1-------------------------3-------------------
G|------9------------------5-----------------------2-----2-------------------4-----4----------------
D|--10------------------7-----------------------3-------------------------5-------------------------
A|--------------------------------------------------------------------------------------------------
E|--------------------------------------------------------------------------------------------------

Stave 7:

E|--8--7--8/10--8--12--10--8--7/10--
B|----------------------------------
G|----------------------------------
D|----------------------------------
A|----------------------------------
E|----------------------------------

http://www.guitartabcreator.com
Guitar Tab Creator is intended to store guitar tab created through the tool. It currently does not support in-line text editing. Any text you place in here will be lost. If you need to comment on your tab, please use the "Tab Notes" section located below.