Sound will begin in 5 seconds

31. Love Song

Chords
01234567891011121314151617181920212223
E
B
G
D
A
E
B
0 1 2 3 4 5 6 7 8 9 10 11 12 13 14 15 16 17 18 19 20 21 22 23
Song Science #1: How Pros Use 6 Chords to Write Hit Songs
(/) Slide Up  (\) Slide Down  (h) Hammer On  (p) Pull Off  (b) Bend (r) Release (v) Vibrato

Stave 1:

E|-----------------------------|-----------------|-----------------------------|--------------------|--
B|-----------------------------|--6--------------|-----------------------------|-----6--------------|--
G|--6--8--8--8--8--8--5--5--8--|--6--------------|--6--8--8--8--8--8--5--5--8--|--6-----------------|--
D|--3--5--5--5--5-----6--------|-----------6--8--|--3--5--5--5--5-----6--------|--------------6--8--|--
A|-----------------------------|-----6--8--------|-----------------------------|--------6--8--------|--
E|-----------------------------|-----------------|-----------------------------|--------------------|--

Stave 2:

E|-----3--3--3--3--1--3--3--4--|--1--|-----------------|--------|--
B|--6--4--4--4--4-----4--------|--2--|--1--2--2--2--2--|--2--4--|--
G|--3--------------------------|-----|--1--------3-----|--1--0--|--
D|-----------------------------|-----|-----------------|--------|--
A|-----------------------------|-----|-----------------|--------|--
E|-----------------------------|-----|-----------------|--------|--

Stave 3:

E|-----3--3--3--3--1--3--3--4--|--1--|-----------------|--------|--
B|--6--4--4--4--4-----4--------|--2--|--1--2--2--2--2--|--2--4--|--
G|--3--------------------------|-----|--1--------3-----|--1--0--|--
D|-----------------------------|-----|-----------------|--------|--
A|-----------------------------|-----|-----------------|--------|--
E|-----------------------------|-----|-----------------|--------|--

Stave 4:

E|--------|-----0--------------|--4--6--6--4--6--|--4--8--|--3--4--4--3--4--|--
B|--1--4--|--3-----3--3--1-----|--1--3--3-----3--|--1-----|-----------------|--
G|-----0--|-----------------3--|-----------------|-----8--|--3--5--5--3--5--|--
D|--1-----|--------------------|-----------------|--------|-----------------|--
A|--------|--------------------|-----------------|--------|-----------------|--
E|--------|--------------------|-----------------|--------|-----------------|--

Stave 5:

E|-----3--3--3--3-----3--3--4--|--1--|-----------------|--------|--
B|--6--4--4--4--4--6--4--------|--2--|--1--2--2--2--2--|--2--4--|--
G|--3--------------------------|-----|--1--------3-----|--0--0--|--
D|-----------------------------|-----|-----------------|--------|--
A|-----------------------------|-----|-----------------|--------|--
E|-----------------------------|-----|-----------------|--------|--

Stave 6:

E|-----3--3--3--3-----3--3--6--|--9--|-----------------|--------|--
B|--6--4--4--4--4--6--4--------|--6--|-----------1--2--|--2--4--|--
G|--3--------------------------|-----|--5--6--6--3-----|--0--0--|--
D|-----------------------------|-----|--6--------------|--------|--
A|-----------------------------|-----|-----------------|--------|--
E|-----------------------------|-----|-----------------|--------|--

Stave 7:

E|--8--11--|--10--12--10--10----------|--4--6--6--3--6--|--4--8--|--
B|-----7---|------------------13--11--|--1--3--3-----3--|--1--4--|--
G|--8------|--------------------------|-----------------|--------|--
D|---------|--------------------------|-----------------|--------|--
A|---------|--------------------------|-----------------|--------|--
E|---------|--------------------------|-----------------|--------|--

Stave 8:

E|----3--4--4--3--4--|-----3--3--3--3-----3--|--3--3--3--|--
B|-------------------|--6--4--4--4--4--6--4--|--4--4--4--|--
G|----3--6--6--3--6--|--3--------------3-----|-----------|--
D|-------------------|-----------------------|-----------|--
A|-------------------|-----------------------|-----------|--
E|-------------------|-----------------------|-----------|--

Stave 9:

E|--1--3--3--3--3--1--3--3--6--|-----|-----------------|--------|--
B|-----4--4--4--4-----4--------|--6--|--1--2--2--2--2--|--2--4--|--
G|--3--------------------------|--6--|--1--------4-----|--1--0--|--
D|-----------------------------|-----|-----------------|--------|--
A|-----------------------------|-----|-----------------|--------|--
E|-----------------------------|-----|-----------------|--------|--

Stave 10:

E|-----3--3--3--3--1--3--3--6--6--|--9--|-----------------|--------|--
B|--6--4--4--4--4-----4-----------|--6--|--1--2--2--2--2--|--2-----|--
G|--3-----------------------------|-----|--1--------3-----|--1--0--|--
D|--------------------------------|-----|-----------------|-----1--|--
A|--------------------------------|-----|-----------------|--------|--
E|--------------------------------|-----|-----------------|--------|--

Stave 11:

E|--8--11--|--10--12--10--10----------|--4--6--6--3--6--|--4--8--|--
B|--4--8---|------------------13--11--|--1--3--3-----3--|--1--4--|--
G|---------|--------------------------|-----------------|--------|--
D|---------|--------------------------|-----------------|--------|--
A|---------|--------------------------|-----------------|--------|--
E|---------|--------------------------|-----------------|--------|--

Stave 12:

E|--3--4--4--3--4--|-----3--3--3--3--3--4--4--3--|--1--|--
B|-----1--1-----1--|--6--4--4--4--4--3--1--1--4--|--2--|--
G|--3--------3-----|--3--------------------------|-----|--
D|-----------------|-----------------------------|-----|--
A|-----------------|-----------------------------|-----|--
E|-----------------|-----------------------------|-----|--

Stave 13:

E|-----------------------------|--1--|-----------------------------|--
B|-----4--4--4--4--4--1--1--4--|--2--|-----4--4--4--4--4--1--1--4--|--
G|--6--0--0--0--0-----1-----4--|-----|--6--0--0--0--0-----1-----4--|--
D|--3--------------------------|-----|--3--------------------------|--
A|-----------------------------|-----|-----------------------------|--
E|-----------------------------|-----|-----------------------------|--

Stave 14:

E|-----|-----------------------------|-----------------|-----|--
B|--6--|-----4--4--4--4--1--1--1--4--|--6--------------|-----|--
G|--6--|--6--0--0--0-----1--------4--|--6-----3--------|-----|--
D|-----|--3--------------------------|-----3-----------|--1--|--
A|-----|-----------------------------|-----------1--1--|-----|--
E|-----|-----------------------------|-----------------|-----|--

http://www.guitartabcreator.com
Guitar Tab Creator is intended to store guitar tab created through the tool. It currently does not support in-line text editing. Any text you place in here will be lost. If you need to comment on your tab, please use the "Tab Notes" section located below.