Sound will begin in 5 seconds

Resent memories

01234567891011121314151617181920212223
E
B
G
D
A
E
B
0 1 2 3 4 5 6 7 8 9 10 11 12 13 14 15 16 17 18 19 20 21 22 23
Song Science #1: How Pros Use 6 Chords to Write Hit Songs
(/) Slide Up  (\) Slide Down  (h) Hammer On  (p) Pull Off  (b) Bend (r) Release (v) Vibrato

(W|WW) Whole (H|HH) Half (Q|QQ) Quarter (E|EE) 8th (S|SS) 16th (T|TT) 32nd (X|XX) 64th

Stave 1:
t: E E E E E E E E E E E E E E E E E E E E E E E E E E E E E E E E
E|--------------------------------------------------------------------------------------------------|--
B|--------------------------------------------------0--0--0--0--0--0--0--0--0--0--0--0--0--0--0--0--|--
G|--4--4--4--4--4--4--4--4--4--4--4--4--4--4--4--4--2--2--2--2--2--2--2--2--2--2--2--2--2--2--2--2--|--
D|--5--5--5--5--5--5--5--5--4--4--4--4--4--4--4--4--2--2--2--2--2--2--2--2--2--2--2--2--2--2--2--2--|--
A|--3--3--3--3--3--3--3--3--2--2--2--2--2--2--2--2--0--0--0--0--0--0--0--0--0--0--0--0--0--0--0--0--|--
E|--------------------------------------------------------------------------------------------------|--

Stave 2:
t: E E E E E E E E E E E E E E E E E E E E Q Q
E|-----|--|--|--|-------------------------------------------------------------------
B|-----|--|--|--|--------------------------5--5--5--5--5--5--5--5--------------4b4--
G|-----|--|--|--|--4--4--4--4--4--4--4--4--4--4--4--4--4--4--4--4--2--2--2--2-------
D|-----|--|--|--|--4--4--4--4--4--4--4--4--5--5--5--5--5--5--5--5--2--x--x--x-------
A|-----|--|--|--|--2--2--2--2--2--2--2--2--3--3--3--3--3--3--3--3--0--0--0--0-------
E|-----|--|--|--|-------------------------------------------------------------------

Stave 3:
t: E E E E E E E E E Q EE
E|-----------------------|-------------------
B|-----------------------|-------------------
G|-----------------------|-------------------
D|--5--5--5--5--5--5--5--|--5--5--5-7-/9-----
A|--5--5--5--5--5--5--5--|--5--5--5-7--------
E|--3--3--3--3--3--3--3--|--3--3--2b4b-8-----

http://www.guitartabcreator.com
Guitar Tab Creator is intended to store guitar tab created through the tool. It currently does not support in-line text editing. Any text you place in here will be lost. If you need to comment on your tab, please use the "Tab Notes" section located below.