Sound will begin in 5 seconds

Goldfinger

01234567891011121314151617181920212223
E
B
G
D
A
E
B
0 1 2 3 4 5 6 7 8 9 10 11 12 13 14 15 16 17 18 19 20 21 22 23
Song Science #1: How Pros Use 6 Chords to Write Hit Songs
(/) Slide Up  (\) Slide Down  (h) Hammer On  (p) Pull Off  (b) Bend (r) Release (v) Vibrato

Stave 1:

E|--------------------------------------------------------------------------
B|--------------------------------------------------------------------------
G|--------------------------------------------------------------------------
D|-----4--2------4--0--2----------------7--6--5------5--5-----4----4--------
A|--2-----------------------2--4--4--4---------------------6----------6--3--
E|--------------------------------------------------------------------------

Stave 2:

E|---------------------------------------------------------------
B|---------------------------------------------------------------
G|---------------------------------------------------------------
D|-----4--2------4--0--2----------------7--6--5------5--5--6--6--
A|--2-----------------------2--4--4--4---------------------------
E|---------------------------------------------------------------

Stave 3:

E|------------------------------------------------------------
B|------------------------------------------------------------
G|---------------------------------------------------------6--
D|--8--6--4--4-----4--4--6--8------8--6--4--4-----4--4--8-----
A|--------------6------------------------------6--------------
E|------------------------------------------------------------

Stave 4:

E|------------------------------------------------------------------
B|------------------------------------------------------------------
G|--6------------------------6--------------------------------------
D|-----9--8----8--8----9--9-----9---------------------7----4--------
A|---------------------------------9------9--9--8--6----------6--3--
E|------------------------------------------------------------------

Stave 5:

E|---------------------------------------------------------------
B|---------------------------------------------------------------
G|---------------------------------------------------------------
D|-----4--2------4--0--2----------------7--6--5------5--5--6--6--
A|--2-----------------------2--4--4--4---------------------------
E|---------------------------------------------------------------

Stave 6:

E|--18--16--16------18--16--21--19--19------16--18--16--16------16--18--16--21--19--19--
B|--------------------------------------------------------------------------------------
G|--------------------------------------------------------------------------------------
D|--------------------------------------------------------------------------------------
A|--------------------------------------------------------------------------------------
E|--------------------------------------------------------------------------------------

Stave 7:

E|--7--3--
B|--9--5--
G|--9--5--
D|--9--5--
A|--7--3--
E|--7--3--

Stave 8:

E|--------------------------------------------------------------------------
B|--------------------------------------------------------------------------
G|--------------------------------------------------------------------------
D|-----4--2------4--0--2----------------7--6--5------5--5-----4----4--------
A|--2-----------------------2--4--4--4---------------------6----------6--3--
E|--------------------------------------------------------------------------

Stave 9:

E|---------------------------------------------------------------
B|---------------------------------------------------------------
G|---------------------------------------------------------------
D|-----4--2------4--0--2----------------7--6--5------5--5--6--6--
A|--2-----------------------2--4--4--4---------------------------
E|---------------------------------------------------------------

Stave 10:

E|-----------------------------------------------------------
B|-----------------------------------------------------------
G|-----------------------------------------------------------
D|-----------------------------------------------------------
A|-----------------------------------------------------------
E|--4--4----6--6--6--6----4--4--4--4----7--7--7--7--6--6--6--

Stave 11:

E|---------------------
B|---------------------
G|---------------------
D|--5--4---------------
A|------------6--4--6--
E|---------------------

http://www.guitartabcreator.com
Guitar Tab Creator is intended to store guitar tab created through the tool. It currently does not support in-line text editing. Any text you place in here will be lost. If you need to comment on your tab, please use the "Tab Notes" section located below.