Sound will begin in 5 seconds

Podrán

01234567891011121314151617181920212223
E
B
G
D
A
E
B
0 1 2 3 4 5 6 7 8 9 10 11 12 13 14 15 16 17 18 19 20 21 22 23
Song Science #1: How Pros Use 6 Chords to Write Hit Songs
(/) Slide Up  (\) Slide Down  (h) Hammer On  (p) Pull Off  (b) Bend (r) Release (v) Vibrato

Stave 1:

E|-0-----------------|-------------------|---------------------------------
B|-1-----1-----1---1-|-------------------|-1-----1-------------------------
G|-2-----2-----2---2-|-0-----0-----0---0-|-2-----2-----0-------------------
D|-2-----2-----2---2-|-2-----2-----2---2-|-2-----2-----2---3-----3---------
A|-0-0-0-0-0-0-0-0-0-|-2-----2-----2---2-|-0-0-0-0-0-0-2---3-----3---------
E|-0-----------------|-0-0-0-0-0-0-0-0-0-|-------------0-0-1-1-1-1---------

Stave 2:

E|-------5-------5---------x-x-x-x-------5-8-5-7-5-------------------------------------|---
B|-----5-------5-----------x-x-x-x-----5-----------8-7---------------------------------|---
G|-7b9-----7b9-----7b7p5---x-x-x-x-7b9-----------------7b9-7b9-7-5-----5-7-5-----------|---
D|-----------------------7-x-x-x-x---------------------------------6-7-------7-6-5-6-7-|---
A|-------------------------x-x-x-x-----------------------------------------------------|---
E|-------------------------x-x-x-x-----------------------------------------------------|---

Stave 3:

E|-------------------------------|-----------5-------------------------------------
B|-------------------------------|---------5---5-----------------------------------
G|---------------6---------------|-------6-------6---------5-7-5h7p5---5-----------
D|-7-7-7-7-----7-7-7-----7-----7-|-----7-----------7---5-7-----------7---7-5-------
A|-----------7-----7-----7-----7-|---7-------------7-7-----------------------7-6-5-
E|---------5-------5-5-5-5-5-5-5-|-5---------------5-------------------------------

Stave 4:

E|-
B|-
G|-
D|-
A|-
E|-

http://www.guitartabcreator.com
Guitar Tab Creator is intended to store guitar tab created through the tool. It currently does not support in-line text editing. Any text you place in here will be lost. If you need to comment on your tab, please use the "Tab Notes" section located below.