Sound will begin in 5 seconds

the Solar Apparatus - Barbarians

01234567891011121314151617181920212223
E
B
G
D
A
E
B
0 1 2 3 4 5 6 7 8 9 10 11 12 13 14 15 16 17 18 19 20 21 22 23
Song Science #1: How Pros Use 6 Chords to Write Hit Songs
(/) Slide Up  (\) Slide Down  (h) Hammer On  (p) Pull Off  (b) Bend (r) Release (v) Vibrato

Stave 1:

E|----------5----------------|----------5-------------|--
B|-----5h6-----6--5-------5--|-----5h6-----6-------5--|--
G|-----6-------------6h7-----|-----6----------6h7-----|--
D|---------------------------|------------------------|--
A|--0------------------------|--0---------------------|--
E|---------------------------|------------------------|--

Stave 2:

E|----------------|----------------------------------------|-----
B|----------3-----|-----3/6--5--3-----------8h10-----------|-----
G|-----0h2-----2--|--------------------8h9--------9--5-----|-----
D|----------------|----------------10----------------7--7--|--7--
A|----------------|----------------8-----------------0-----|-----
E|--1-------------|--0-------------------------------------|-----

Stave 3:

E|----------------|--------------|-----------|-----------|-----------|-----------|-----------|--
B|----------3-----|-----3--5--6--|-----------|-----------|-----------|-----------|-----------|--
G|-----0h2-----2--|--------------|--7--------|--9--------|--7--------|--9--------|--7--------|--
D|----------------|--------------|--8--8--8--|--9--9--9--|--8--8--8--|--9--9--9--|--8--8--8--|--
A|----------------|--------------|--8--------|--7--------|--8--------|--7--------|--8--------|--
E|--1-------------|--0-----------|--6--------|-----------|--6--------|-----------|--6--------|--

Stave 4:

E|--0--------|--0--------|--0--------|--0--------|--0--------|--0------|--
B|--0--------|--0--------|--0--------|--0--------|--0--------|--0------|--
G|--5--------|--5--------|--5--------|--5--------|--5--------|--5------|--
D|--7--7--7--|--6--6--6--|--7--7--7--|--6--6--6--|--7--7--7--|--6------|--
A|--0--------|--x--------|--0--------|--x--------|--0--------|--x------|--
E|-----------|--4--------|-----------|--4--------|-----------|--4------|--

http://www.guitartabcreator.com
Guitar Tab Creator is intended to store guitar tab created through the tool. It currently does not support in-line text editing. Any text you place in here will be lost. If you need to comment on your tab, please use the "Tab Notes" section located below.