Sound will begin in 5 seconds

Don't want you to go out tonight

01234567891011121314151617181920212223
E
B
G
D
A
E
B
0 1 2 3 4 5 6 7 8 9 10 11 12 13 14 15 16 17 18 19 20 21 22 23
Song Science #1: How Pros Use 6 Chords to Write Hit Songs
(/) Slide Up  (\) Slide Down  (h) Hammer On  (p) Pull Off  (b) Bend (r) Release (v) Vibrato

Stave 1:

E|----14----15-14-12-|----15----17-15-14-|----12----15-14-12-|----14----14-12-10-|-
B|-15----15----------|-12----12----------|-10----10----------|-15----15----------|-
G|-------------------|-------------------|-------------------|-------------------|-
D|-------------------|-------------------|-------------------|-------------------|-
A|-------------------|-------------------|-------------------|-------------------|-
E|-------------------|-------------------|-------------------|-------------------|-

Stave 2:

E|----------------|--------------|---10-10-10-9------|----------------|----------------|-
B|----------10-10-|------10------|---7--7--7----10p7-|--------10------|----------10----|-
G|---7-9/11----9--|-9/11----11\9-|-7-7--7--7---------|-9-9/11----11\9-|-7---9/11----11-|-
D|-9--------------|--------------|-------------------|----------------|---9------------|-
A|----------------|--------------|-------------------|----------------|----------------|-
E|----------------|--------------|-------------------|----------------|----------------|-

Stave 3:

E|----------------|---10-9-----------------|---
B|--------10------|--------10p8p7---10p8p7-|---
G|-9-9/11----11\9-|-7-------------9--------|-7-
D|----------------|------------------------|---
A|----------------|------------------------|---
E|----------------|------------------------|---

Stave 4:

E|----------------------|-------------------12-|----------12-12-12----|-------------------|-
B|----------------------|----15-15----15-15----|-12----------------15-|-14----------------|-
G|-14-14-14-14-14-14-14-|-14-------14----------|----12----------------|----14-14-14-12-12-|-
D|----------------------|----------------------|-------14-------------|-------------------|-
A|----------------------|----------------------|----------------------|-------------------|-
E|----------------------|----------------------|----------------------|-------------------|-

Stave 5:

E|----------------------|-------------------12-|----------12-12-12----|-------------------|-
B|----------------------|----15-15----15-15----|-12----------------15-|-14----------------|-
G|-11-------14-14-14-14-|-14-------14----------|----12----------------|----14-14-14-12-11-|-
D|----12----------------|----------------------|-------14-------------|-------------------|-
A|-------12-------------|----------------------|----------------------|-------------------|-
E|----------------------|----------------------|----------------------|-------------------|-

Stave 6:

E|-------------------|-
B|----------15-15-15-|-
G|-------------------|-
D|-12-12-12----------|-
A|-------------------|-
E|-------------------|-

http://www.guitartabcreator.com
Guitar Tab Creator is intended to store guitar tab created through the tool. It currently does not support in-line text editing. Any text you place in here will be lost. If you need to comment on your tab, please use the "Tab Notes" section located below.