Sound will begin in 5 seconds

Brand new beginning gitarr 3

01234567891011121314151617181920212223
E
B
G
D
A
E
B
0 1 2 3 4 5 6 7 8 9 10 11 12 13 14 15 16 17 18 19 20 21 22 23
Song Science #1: How Pros Use 6 Chords to Write Hit Songs
(/) Slide Up  (\) Slide Down  (h) Hammer On  (p) Pull Off  (b) Bend (r) Release (v) Vibrato

Stave 1:

E|-------------|--------------|-------------|--------------|-------------|-
B|-------------|--------------|-------------|--------------|-------------|-
G|---7-----7-6-|-----9/11-9---|---7-----7-6-|-----9/11-9---|---7-----7-6-|-
D|-5---5/7-----|-7----------7-|-5---5/7-----|-7----------7-|-5---5/7-----|-
A|-------------|---9----------|-------------|---9----------|-------------|-
E|-------------|--------------|-------------|--------------|-------------|-

Stave 2:

E|--------------|-------------|---
B|--------------|-------------|---
G|-----9/11-9---|---7-----7-6-|-7-
D|-7----------7-|-5---5/7-----|---
A|---9----------|-------------|---
E|--------------|-------------|---

Stave 3:

E|----15-15-15-14-12-|-14----12/14-12----|----15-15-15-14-12-|-14----15/17-15-14-|-
B|-12----------------|----15----------15-|-12----------------|----15-------------|-
G|-------------------|-------------------|-------------------|-------------------|-
D|-------------------|-------------------|-------------------|-------------------|-
A|-------------------|-------------------|-------------------|-------------------|-
E|-------------------|-------------------|-------------------|-------------------|-

Stave 4:

E|-15----15-15-14-12-|-14----12-14-12----|----15-15-15-14-12-|-------------|-
B|----12-------------|----15----------15-|-12----------------|-15-15-15-15-|-
G|-------------------|-------------------|-------------------|-------------|-
D|-------------------|-------------------|-------------------|-------------|-
A|-------------------|-------------------|-------------------|-------------|-
E|-------------------|-------------------|-------------------|-------------|-

Stave 5:

E|-
B|-
G|-
D|-
A|-
E|-

Stave 6:

E|-15-15-15-15-15-15-15-15-|-14-14-14-14-14-14-14-|-15-15-15-15-15-15-15-15-|-14-14-14-14-14-14-14-|-
B|-------------------------|----------------------|-------------------------|----------------------|-
G|-------------------------|----------------------|-------------------------|----------------------|-
D|-------------------------|----------------------|-------------------------|----------------------|-
A|-------------------------|----------------------|-------------------------|----------------------|-
E|-------------------------|----------------------|-------------------------|----------------------|-

Stave 7:

E|-------------------------|----------------------|-------------------------|----------------------|-
B|-15-15-15-15-12-12-12-12-|----------------------|-------------------------|----------------------|-
G|-------------------------|-14-14-14-14-14-14-14-|-14-14-14-14-12-12-12-12-|-11-11-11-11-11-11-11-|-
D|-------------------------|----------------------|-------------------------|----------------------|-
A|-------------------------|----------------------|-------------------------|----------------------|-
E|-------------------------|----------------------|-------------------------|----------------------|-

http://www.guitartabcreator.com
Guitar Tab Creator is intended to store guitar tab created through the tool. It currently does not support in-line text editing. Any text you place in here will be lost. If you need to comment on your tab, please use the "Tab Notes" section located below.