Sound will begin in 5 seconds

wrtyui

01234567891011121314151617181920212223
E
B
G
D
A
E
B
0 1 2 3 4 5 6 7 8 9 10 11 12 13 14 15 16 17 18 19 20 21 22 23
Song Science #1: How Pros Use 6 Chords to Write Hit Songs
(/) Slide Up  (\) Slide Down  (h) Hammer On  (p) Pull Off  (b) Bend (r) Release (v) Vibrato

Stave 1:

E|-------------0-------------------------------------
B|----------0-----0----------13----------12----------
G|------12-----------12----------12----------12------
D|--10-------------------10----------10----------10--
A|---------------------------------------------------
D|---------------------------------------------------

Stave 2:

E|-----0-----------------------------------
B|--------0--------------------------------
G|-----------11-----12--------11-----------
D|--9------------9------9--9------9--9--7--
A|-----------------------------------------
D|-----------------------------------------

Stave 3:

E|---------------------------------------------------------------------------------------------------
B|---------------------------------------------------------------------------------------------------
G|---------------------------------------------------------------------------------------------------
D|--------------10--12--14--12--14--15--14--------------15--14--12--14--12--10--12--10--9--9--10--9--
A|---------------------------------------------------------------------------------------------------
D|--10--10--10------------------------------10--10--10-----------------------------------------------

Stave 4:

E|---------------------------------------------------------
B|---------------------------------------------------------
G|---------------------------------------------------------
D|---------------------------------------------------------
A|---------------------------------------------------------
D|--9--9--9--9--10--9--7--9--7--5--7--9--9--9--9--7--7--7--

Stave 5:

E|-----------------------------------------------------------------------------------------------------------------------------------------------------------------
B|-----------------------------------------------------------------------------------------------------------------------------------------------------------------
G|-----------------------------------------------------------------------------------------------------------------------------------------------------------------
D|------------------10--12------------------10--12------------------10--12------------------10--12----------------9--11----------------9--11----------------9--11--
A|----------10--12------------------10--12------------------10--12------------------10--12-----------------9--11----------------9--11----------------9--11---------
D|--10--13------------------10--13------------------10--13------------------10--13------------------9--12----------------9--12----------------9--12----------------

Stave 6:

E|-----------------------------------------------------------------------------------------------------------------------------------
B|-----------------------------------------------------------------------------------------------------------------------------------
G|-----------------------------------------------------------------------------------------------------------------------------------
D|---------------7--9---------------7--9---------------7--9--------------6--8--------------6--8--------------6--8--------------6--8--
A|---------7--9---------------7--9---------------7--9--------------6--8--------------6--8--------------6--8--------------6--8--------
D|--7--10--------------7--10--------------7--10--------------6--9--------------6--9--------------6--9--------------6--9--------------

Stave 7:

E|-------------------------------------------------
B|-------------------------------------------------
G|-------------------------------------------------
D|-------------------------------------------------
A|--------------------9--12-----------------9--12--
D|--4--4--5--4--2--0---------4--5--4--2--0---------

Stave 8:

E|-----------------------------------------------------------------------------------------------
B|-----------------------------------------------------------------------------------------------
G|-----------------------------------------------------------------------------------------------
D|-----------------------------------------------------------------------------------------------
A|--8--8--8--8--7--7--7--7--5--5--5--5--6--6--6--6--8--8--8--8--7--7--7--7--5--5--5--5--6--6--6--
D|-----------------------------------------------------------------------------------------------

http://www.guitartabcreator.com
Guitar Tab Creator is intended to store guitar tab created through the tool. It currently does not support in-line text editing. Any text you place in here will be lost. If you need to comment on your tab, please use the "Tab Notes" section located below.