Sound will begin in 5 seconds

adfg

01234567891011121314151617181920212223
E
B
G
D
A
E
B
0 1 2 3 4 5 6 7 8 9 10 11 12 13 14 15 16 17 18 19 20 21 22 23
Song Science #1: How Pros Use 6 Chords to Write Hit Songs
(/) Slide Up  (\) Slide Down  (h) Hammer On  (p) Pull Off  (b) Bend (r) Release (v) Vibrato

Stave 1:

E|-----------------------------------------
B|-----------------------------------------
G|-----------------------------------------
D|---0h2---2h3---3/5---5/7---5---5---3---3-
A|-----------------------------------------
D|-0-----0-----0-----0-----5---5---3---3---

Stave 2:

E|-------------------------------------------------------------
B|-------------------------------------------------------------
G|-------------------------------------------------------------
D|---0-----2-----3-----5-----7-------5-----5-------3-----3-----
A|-----0-----0-----0-----0-----0-------0-----0-------0-----0---
D|-0-----0-----0-----0-----0-----0-5-----5-----5-3-----3-----3-

Stave 3:

E|---------------------------------------------------------------------------
B|---------------------------------------------------------------------------
G|---------------------------------------------------------------------------
D|---------------5h6---3h4-----------0h2-----2h3-----3h5-------5h6---3h4-----
A|-----------5h6-----------3h4-----------------------------5h6-----------3h4-
D|-0-0-0---5---------3---------0-0-0-----0-0-----0-0-----5---------3---------

Stave 4:

E|-----------------------------------------------------------------------------
B|-----------------------------------------------------------------------------
G|-----------------------------------------------------------------------------
D|-----------------------------------------------------------------------------
A|-5-5-5-5-7-7-7-7-8-8-8-8-10-10-10-10-7-7-7-7-8-8-8-8-10-10-10-10-12-12-12-12-
D|-----------------------------------------------------------------------------

Stave 5:

E|---------------------------------------------------------
B|---------------------------------------------------------
G|---------------------------------------------------------
D|-5-7-8-5-7-8-5-7-3-5-7-3-5-7-3-5-------------------------
A|---------------------------------5-7-8-5-7-8-5-7-8-5-7-8-
D|---------------------------------------------------------

Stave 6:

E|-------------------------------------------
B|-------------------------------------------
G|-------------------------------------------
D|-------------------------------------------
A|-------------------------------------------
D|-5-5-5-5-5--3-3-3-3-3--2-2-2-2-2--5-5-5-5--

http://www.guitartabcreator.com
Guitar Tab Creator is intended to store guitar tab created through the tool. It currently does not support in-line text editing. Any text you place in here will be lost. If you need to comment on your tab, please use the "Tab Notes" section located below.