Sound will begin in 5 seconds

Play That Funky Music - Wild Cherry (Rock School cover)

01234567891011121314151617181920212223
E
B
G
D
A
E
B
0 1 2 3 4 5 6 7 8 9 10 11 12 13 14 15 16 17 18 19 20 21 22 23
Song Science #1: How Pros Use 6 Chords to Write Hit Songs
(/) Slide Up  (\) Slide Down  (h) Hammer On  (p) Pull Off  (b) Bend (r) Release (v) Vibrato

Stave 1:

E|-----------------------------
B|-----------------------------
G|-----------------------------
D|-----------------------------
A|--------7--5--7--------5--7--
E|--0--0-----------5--7--------

Stave 2:

E|-----------------------------------------------------------------------------------------------------
B|-----------------------------------------------------------------------------------------------------
G|--------------------------------------------------------9--7-----7-----------------------------------
D|--------5--3--5--------3--5-----------------------------------9-----9--7--9--5--7--9--7--5-----------
A|-----------------3--5--------------7--5--7--------5--7--------------------------------------7--5--7--
E|--3--3-----------------------0--0-----------5--7-----------------------------------------------------

Stave 3:

E|---------------------------------------15b17--15b17--15b17--12------12---------12-----------------
B|---------------------15b17--15b17--12---------------------------15------15b17------15--12--15b17--
G|---------12--14--12-------------------------------------------------------------------------------
D|--12h14-------------------------------------------------------------------------------------------
A|--------------------------------------------------------------------------------------------------
E|--------------------------------------------------------------------------------------------------

Stave 4:

E|---------12-----------------12------12--12---------15---------15---------15---------15--
B|--15b17------15--12--15b17------15----------15b17------15b17------15b17------15b17------
G|----------------------------------------------------------------------------------------
D|----------------------------------------------------------------------------------------
A|----------------------------------------------------------------------------------------
E|----------------------------------------------------------------------------------------

Stave 5:

E|-----------------------------------------------------------------------15b17--12--15--12--
B|--15b17--15--12---------------------------------------------15b17--12---------------------
G|-----------------14b16--14--12------14--12------12--12--12--------------------------------
D|--------------------------------14----------14--------------------------------------------
A|------------------------------------------------------------------------------------------
E|------------------------------------------------------------------------------------------

Stave 6:

E|--17b19--17b19--15------15-------------15---------15---------15--17b19--15------
B|--------------------17------17--15h17------15h17------15h17-----------------17--
G|--------------------------------------------------------------------------------
D|--------------------------------------------------------------------------------
A|--------------------------------------------------------------------------------
E|--------------------------------------------------------------------------------

http://www.guitartabcreator.com
Guitar Tab Creator is intended to store guitar tab created through the tool. It currently does not support in-line text editing. Any text you place in here will be lost. If you need to comment on your tab, please use the "Tab Notes" section located below.