Sound will begin in 5 seconds

Smoke on the Water Guitar Solo

01234567891011121314151617181920212223
E
B
G
D
A
E
B
0 1 2 3 4 5 6 7 8 9 10 11 12 13 14 15 16 17 18 19 20 21 22 23
Song Science #1: How Pros Use 6 Chords to Write Hit Songs
(/) Slide Up  (\) Slide Down  (h) Hammer On  (p) Pull Off  (b) Bend (r) Release (v) Vibrato

Stave 1:

E|------------------------------------
B|--------------13b14--11------11b12--
G|------10--12-------------12---------
D|--12--------------------------------
A|------------------------------------
E|------------------------------------

Stave 2:

E|--------------------------------------------------------------------
B|--------------11--11b12--11--10--8--10--8--10--8------8-------------
G|------10--12--------------------------------------10-----10--8--10--
D|--12----------------------------------------------------------------
A|--------------------------------------------------------------------
E|--------------------------------------------------------------------

Stave 3:

E|-----------------------------------8---------
B|----------------8--11--12--11--12-----8--11--
G|--10b11--10b11-------------------------------
D|---------------------------------------------
A|---------------------------------------------
E|---------------------------------------------

Stave 4:

E|---------8------------------------------------------------
B|------8-----11--10--8-------------------------------------
G|--10-------------------11--10--8------10--8--7------------
D|----------------------------------10------------10--8--7--
A|----------------------------------------------------------
E|----------------------------------------------------------

Stave 5:

E|-------------------------------------------------------
B|-------------------------------------------------------
G|-------------------8--7--5--3--5--3--2--3--2--3--2--0--
D|------8--7--10--8--------------------------------------
A|--10---------------------------------------------------
E|-------------------------------------------------------

Stave 6:

E|----------3-----3--3-------------------------------------------------
B|-------3-----6--------6--5--3----------------------------------------
G|--5b6--------------------------6--5--3-----5--3--5b6--5b6--5b6--5b6--
D|----------------------------------------5----------------------------
A|---------------------------------------------------------------------
E|---------------------------------------------------------------------

Stave 7:

E|--------3--------3--6--8b9--8--6--8-----
B|--3--6-----3--6----------------------8--
G|----------------------------------------
D|----------------------------------------
A|----------------------------------------
E|----------------------------------------

Stave 8:

E|----------------8---------8--10--11--13--13b14--13--14--13--14--13--14--13--14--13--10---------
B|--8--11------8-----11--8----------------------------------------------------------------13b14--
G|---------10------------------------------------------------------------------------------------
D|-----------------------------------------------------------------------------------------------
A|-----------------------------------------------------------------------------------------------
E|-----------------------------------------------------------------------------------------------

Stave 9:

E|---------------------------8--6--8--8b9--9--9--9--9--9--9--9--8--8--8--8-------
B|-------6----------------8-------------------------------------------------6b7--
G|--5b6-----6p3--5--3------------------------------------------------------------
D|---------------------5---------------------------------------------------------
A|-------------------------------------------------------------------------------
E|-------------------------------------------------------------------------------

http://www.guitartabcreator.com
Guitar Tab Creator is intended to store guitar tab created through the tool. It currently does not support in-line text editing. Any text you place in here will be lost. If you need to comment on your tab, please use the "Tab Notes" section located below.