Ramune

Chords
01234567891011121314151617181920212223
E
B
G
D
A
E
B
0 1 2 3 4 5 6 7 8 9 10 11 12 13 14 15 16 17 18 19 20 21 22 23
(/) Slide Up  (\) Slide Down  (h) Hammer On  (p) Pull Off  (b) Bend (r) Release (v) Vibrato
E|-----0--------------0--------------0--------------0--------------------------------------
B|--------1--0--1--------1--0-----------1--0--1--------0-----------------------------------
G|-----------------------------1--------------------------1-----1--0--1--1-----1--0--1--1--
D|--------------------------------0--------------0-----------0--------------0--------------
A|--0--------------0-----------------------------------------------------------------------
E|-----------------------------------------------------------------------------------------



E|--------------------------------------------------
B|--------------------------1--1--1--1--1--1--1--1--
G|--1--1--1--1--1--1--1--1--1--1--1--1--1--1--1--1--
D|--1--1--1--1--1--1--1--1--------------------------
A|--------------------------------------------------
E|--------------------------------------------------



E|--2--2--2--2--2--2--2--2--------------------------
B|--3--3--3--3--3--3--3--3--3--3--3--3--3--3--3--3--
G|--4--4--4--4--4--4--4--4--2--2--2--2--2--2--2--2--
D|--4--4--4--4--4--4--4--4--4-----4--4--4--4--4--4--
A|--------------------------------------------------
E|--------------------------------------------------



E|--
B|--
G|--
D|--
A|--
E|--
							http://www.guitartabcreator.com
[[],[],[],[],[],[]]

Member for

8 years 7 months
Submitted by Opennightsky on Thu, 2011-10-13 10:55