Sound will begin in 5 seconds

Out on the Dance Floor

01234567891011121314151617181920212223
E
B
G
D
A
E
B
0 1 2 3 4 5 6 7 8 9 10 11 12 13 14 15 16 17 18 19 20 21 22 23
Song Science #1: How Pros Use 6 Chords to Write Hit Songs
(/) Slide Up  (\) Slide Down  (h) Hammer On  (p) Pull Off  (b) Bend (r) Release (v) Vibrato

Stave 1:

E|-----------------------------------------------------
B|-----------------------------------------------------
G|-----------------------------------------------------
D|-----------------------------------------------------
A|--4--3--1--------1--1--1--1--1--1--1--1--1--1--1--1--
E|-----------4--4--------------------------------------

Stave 2:

E|-----------------------------------------
B|-----------------------------------------
G|-----------------------------------------
D|-----------------------------------------
A|--4--3--1--------------------------------
E|-----------4--4--1--1--1--1--1--1--1--1--

Stave 3:

E|---------------------------------------------------------------
B|---------------------------------------------------------------
G|--6--5--3--------3--7--10--15--13--13--13--12--10--10--10--10--
D|-----------6--6------------------------------------------------
A|---------------------------------------------------------------
E|---------------------------------------------------------------

Stave 4:

E|--------------------------------------------------------------------------------
B|--------------------------------------------------------------------------------
G|--------------------------------------------------------13--13--13--12--10--10--
D|--8--8--10--10--11--11--12--12--13--13--14--14--15--15--------------------------
A|--------------------------------------------------------------------------------
E|--------------------------------------------------------------------------------

Stave 5:

E|--------------------------10----------------------9----------------------8------
B|----------------------12------12--------------11-----11--------------10-----10--
G|--10--10--11--12--12--------------12--11--11-------------11--10--10-------------
D|--------------------------------------------------------------------------------
A|--------------------------------------------------------------------------------
E|--------------------------------------------------------------------------------

Stave 6:

E|---------------------9------
B|-----7-----7--9--11-----11--
G|--8-----8-------------------
D|----------------------------
A|----------------------------
E|----------------------------

Stave 7:

E|-----------------9------------------------------------9---------------11--11--
B|--11--11--9--11-----11--11--9--11------11--11--9--11-----11--9--9--9----------
G|-----------------------------------10-----------------------------------------
D|------------------------------------------------------------------------------
A|------------------------------------------------------------------------------
E|------------------------------------------------------------------------------

Stave 8:

E|-----------------9------------------------------------9--
B|--11--11--9--11-----11--11--9--11------11--11--9--11-----
G|-----------------------------------10--------------------
D|---------------------------------------------------------
A|---------------------------------------------------------
E|---------------------------------------------------------

http://www.guitartabcreator.com
Guitar Tab Creator is intended to store guitar tab created through the tool. It currently does not support in-line text editing. Any text you place in here will be lost. If you need to comment on your tab, please use the "Tab Notes" section located below.