Sound will begin in 5 seconds

Eric Hutchinson - Watching You Watch Him (Uke)

01234567891011121314151617181920212223
E
B
G
D
A
E
B
0 1 2 3 4 5 6 7 8 9 10 11 12 13 14 15 16 17 18 19 20 21 22 23
Song Science #1: How Pros Use 6 Chords to Write Hit Songs
(/) Slide Up  (\) Slide Down  (h) Hammer On  (p) Pull Off  (b) Bend (r) Release (v) Vibrato

Stave 1:

E|-----------------3--4--6--6--6--6--8--4--6--3--4--1--3--4--4--3--3--1----1--3--4--3--1-----1----
B|--------3--4--6-------------------------------------------------------------------------4-------
G|--3--5------------------------------------------------------------------------------------------
D|------------------------------------------------------------------------------------------------
A|------------------------------------------------------------------------------------------------
E|------------------------------------------------------------------------------------------------

Stave 2:

E|-----------3--4--6--8--10--11----13--13--10--11--8--10--6--8--3--4--6----6--4--3--------6--4--3--------
B|--3--4--6-------------------------------------------------------------------------6--4-----------6--4--
G|-------------------------------------------------------------------------------------------------------
D|-------------------------------------------------------------------------------------------------------
A|-------------------------------------------------------------------------------------------------------
E|-------------------------------------------------------------------------------------------------------

Stave 3:

E|--8--6--4--3--------------------
B|--------------6--4--3-----------
G|-----------------------5--3--5--
D|--------------------------------
A|--------------------------------
E|--------------------------------

http://www.guitartabcreator.com
Guitar Tab Creator is intended to store guitar tab created through the tool. It currently does not support in-line text editing. Any text you place in here will be lost. If you need to comment on your tab, please use the "Tab Notes" section located below.