Sound will begin in 5 seconds

voodoochild

Chords
01234567891011121314151617181920212223
E
B
G
D
A
E
B
0 1 2 3 4 5 6 7 8 9 10 11 12 13 14 15 16 17 18 19 20 21 22 23
Song Science #1: How Pros Use 6 Chords to Write Hit Songs
(/) Slide Up  (\) Slide Down  (h) Hammer On  (p) Pull Off  (b) Bend (r) Release (v) Vibrato

Stave 1:

E|---------------------------------------------------------x--x--------------------------------
B|---------------------------------------------------------x--x--------------------------------
G|--9v--9-------7v-------------------9v--7-----9v--p8p7----x--x--7h9v--p0---------7v-----------
D|---------7h9------5b--5--7p5h7------------9--------------x--x------------9p7h9--------5--5b--
A|--------------------------------0------------------------x--x--------------------------------
E|---------------------------------------------------------x--x--------------------------------

Stave 2:

E|-------------------------------------------------------------------------------------------
B|-------------------------------------------------------------------------------------------
G|---------7h9v--0--7--9v------9v--0-------7v--------------------------7h9v--7-----9v--p7----
D|----7p0-----------------------------7h9--------5b4--5b4--7p5------------------7------------
A|--------------------------------------------------------------5h7p0------------------------
E|-------------------------------------------------------------------------------------------

Stave 3:

E|--x--x---------------------------------------------------------------------------
B|--x--x-----------------------------------------------------10b12--12b10--8-------
G|--x--x----9v--0-------7v--------------------7h9v--9--7--9-------------------9\4--
D|--x--x-----------7h9------5b4--5b4--7--------------------------------------------
A|--x--x---------------------------------5h7---------------------------------------
E|--x--x---------------------------------------------------------------------------

Stave 4:

E|---------------------------------------------------------------------------------------------
B|---------------------------------------------------------------------------------------------
G|----------2--2b3p0------------------------2--2b3p0--------------14b16--16b14--12v------------
D|--------------------2-------------2p0---------------2----------------------------------------
A|-------------------------------------------------------2--0----------------------------------
E|----0--0---------------0--0--3b2-------0---------------0--0--0---------------------12--12\2--

Stave 5:

E|----------------------------------------------------------------------0--0--0--
B|----------------------------------------------------------------------0--0--0--
G|--------2b3p0--------2b4--2b4--2b4--2b3--2b3--2b3p0-------------------1--1--1--
D|---------------2------------------------------------------------2-----2--2--2--
A|----------------------------------------------------------------------2--2--2--
E|--0--0------------0----------------------------------0--0--3b2-----0--0--0--0--

Stave 6:

E|---------12---------12----------------------------------------------------------------------------------------------
B|--15b17------15b17-----------------15p12--14----------------------------12h15---------------------------------------
G|------------------------14b16--12-------------14b15--14p12------12--14---------14b16--14p12------14b16--14--14b12v--
D|------------------------------------------------------------14-------------------------------14---------------------
A|--------------------------------------------------------------------------------------------------------------------
E|--------------------------------------------------------------------------------------------------------------------

Stave 7:

E|---------x--x---------
B|---------x--x---------
G|--12v----x--x---------
D|---------x--x---------
A|---------x--x---------
E|---------x--x----7\3--

http://www.guitartabcreator.com
Guitar Tab Creator is intended to store guitar tab created through the tool. It currently does not support in-line text editing. Any text you place in here will be lost. If you need to comment on your tab, please use the "Tab Notes" section located below.