Sound will begin in 5 seconds

Golubica

01234567891011121314151617181920212223
E
B
G
D
A
E
B
0 1 2 3 4 5 6 7 8 9 10 11 12 13 14 15 16 17 18 19 20 21 22 23
Song Science #1: How Pros Use 6 Chords to Write Hit Songs
(/) Slide Up  (\) Slide Down  (h) Hammer On  (p) Pull Off  (b) Bend (r) Release (v) Vibrato

Stave 1:

E|------------------------------------------------------------|--
B|------------------------------------------------------------|--
G|--------13--14--14------------------------------------------|--
D|--------------------14--15--12--14------12------------------|--
A|------------------------------------15------14--15--14--11--|--
E|------------------------------------------------------------|--

Stave 2:

E|------------------------------------------------------|--
B|------------------------------------------------------|--
G|------------------------------------------------------|--
D|------------------------------------------------------|--
A|--14--12--11----------12------12--14--15--17--15--14--|--
E|--------------13--12------12--------------------------|--

Stave 3:

E|----------------------------------------------------------------|--
B|----------------------------------------------------------------|--
G|--------13--14--14----------------------------------------------|--
D|--------------------14--15--12--14------12----------12----------|--
A|------------------------------------15------14--15------14--12--|--
E|----------------------------------------------------------------|--

Stave 4:

E|---------------------------------------------|--
B|---------------------------------------------|--
G|---------------------------------------------|--
D|--------6--7--9--10--12--10--9--7------9--7--|--
A|--7--8-----------------------------10--------|--
E|---------------------------------------------|--

Stave 5:

E|---------------------------------------|--
B|--------------------10-----------------|--
G|----10--12--12--12------12--10--10--9--|--
D|---------------------------------------|--
A|---------------------------------------|--
E|---------------------------------------|--

Stave 6:

E|----------------------------------------------------|--
B|----------------------------------------------------|--
G|-----------------------------------------9--10--11--|--
D|--15--14--12--14--12----------9--10--12-------------|--
A|----------------------10--12------------------------|--
E|----------------------------------------------------|--

Stave 7:

E|------------------------------------------|--
B|------------------------------------------|--
G|--12------12--12--12--14--12--------------|--
D|------15----------------------15--15--14--|--
A|------------------------------------------|--
E|------------------------------------------|--

http://www.guitartabcreator.com
Guitar Tab Creator is intended to store guitar tab created through the tool. It currently does not support in-line text editing. Any text you place in here will be lost. If you need to comment on your tab, please use the "Tab Notes" section located below.