Layla

Chords

01234567891011121314151617181920212223
E
B
G
D
A
E
B
0 1 2 3 4 5 6 7 8 9 10 11 12 13 14 15 16 17 18 19 20 21 22 23
(/) Slide Up  (\) Slide Down  (h) Hammer On  (p) Pull Off  (b) Bend (r) Release (v) Vibrato
E|------10------------------------------------------
B|--13------13--10------10--------------------------
G|------------------12------12--10p12--9--10--9--7--
D|--------------------------------------------------
A|--------------------------------------------------
E|--------------------------------------------------



E|-------------------------------------------------------
B|-----------5--6--5-------------------------------------
G|--------7-----------7--5--7--5-------------------------
D|-----7--------------------------3-----3h5--3--0--------
A|-----------------------------------5-------------0--3--
E|-------------------------------------------------------



E|--
B|--
G|--
D|--
A|--
E|--
							http://www.guitartabcreator.com
[[],[],[],[],[],[]]

Member for

7 years 8 months
Submitted by odranoel on Thu, 2012-09-27 20:35