Sound will begin in 5 seconds

Drug Me

Chords
01234567891011121314151617181920212223
E
B
G
D
A
E
B
0 1 2 3 4 5 6 7 8 9 10 11 12 13 14 15 16 17 18 19 20 21 22 23
(/) Slide Up  (\) Slide Down  (h) Hammer On  (p) Pull Off  (b) Bend (r) Release (v) Vibrato

Capo Fret 2

Stave 1:

E|--------|--------
B|--5--4--|--------
G|--------|--------
D|-----6--|--7-----
A|--7-----|--5--4--
E|--------|-----5--

Stave 2:

E|--------0-----
B|--5-----0-----
G|--6--7--4--6--
D|--0--7--0--7--
A|--5--5--0--5--
E|--5-----4--7--

Stave 3:

E|--------------------------------|----------------------
B|--------0--------0-----5--------|-----------0----------
G|--------------------------0-----|--------6-----6-------
D|--4--4-----4--------4--------4--|-----4-----------0h4--
A|--------------------------------|--0-------------------
E|--------------------------------|----------------------

http://www.guitartabcreator.com
Guitar Tab Creator is intended to store guitar tab created through the tool. It currently does not support in-line text editing. Any text you place in here will be lost. If you need to comment on your tab, please use the "Tab Notes" section located below.