Sound will begin in 5 seconds

The Man

01234567891011121314151617181920212223
E
B
G
D
A
E
B
0 1 2 3 4 5 6 7 8 9 10 11 12 13 14 15 16 17 18 19 20 21 22 23
Song Science #1: How Pros Use 6 Chords to Write Hit Songs
(/) Slide Up  (\) Slide Down  (h) Hammer On  (p) Pull Off  (b) Bend (r) Release (v) Vibrato

Stave 1:

E|--3--5--3--5--7--5-----------|----------------7--9--10--9--7--|--
B|--------------------7--3-----|--8--10--8--10------------------|--
G|--------------------------4--|--------------------------------|--
D|-----------------------------|--------------------------------|--
A|-----------------------------|--------------------------------|--
E|-----------------------------|--------------------------------|--

Stave 2:

E|--5-----5--5--5--7--5-----------|-----------------------------------|--
B|-----7-----------------7--3-----|--10--10--10--7--7--7--5--3--7--5--|--
G|-----------------------------4--|-----------------------------------|--
D|--------------------------------|-----------------------------------|--
A|--------------------------------|-----------------------------------|--
E|--------------------------------|-----------------------------------|--

Stave 3:

E|-----------------------------------|--------------------------------------|--
B|--10--10--10--7--7--7--5--3--7--5--|--10--10--10--10--10--10--5--3--5--3--|--
G|-----------------------------------|--------------------------------------|--
D|-----------------------------------|--------------------------------------|--
A|-----------------------------------|--------------------------------------|--
E|-----------------------------------|--------------------------------------|--

Stave 4:

E|--5--5--5--5--5--5--------------------|----------------------------------|--
B|--------------------7--5--7--5--7--5--|--5-----5--7--7--5--3--5--3----3--|--
G|--------------------------------------|-----7----------------------------|--
D|--------------------------------------|----------------------------------|--
A|--------------------------------------|----------------------------------|--
E|--------------------------------------|----------------------------------|--

Stave 5:

E|-----5--5--7--5-----5-----5--2--|--2--2--2-----2--------2--------|--
B|--7--------------7-----7--------|-----------5-----5--3-----5--3--|--
G|--------------------------------|--------------------------------|--
D|--------------------------------|--------------------------------|--
A|--------------------------------|--------------------------------|--
E|--------------------------------|--------------------------------|--

Stave 6:

E|---------------------------------|-----5--2-----2--2-----2--2--------|--
B|--10--10--10--10--7--5--7--5--7--|--3--------5--------5--------5--3--|--
G|---------------------------------|-----------------------------------|--
D|---------------------------------|-----------------------------------|--
A|---------------------------------|-----------------------------------|--
E|---------------------------------|-----------------------------------|--

Stave 7:

E|--5--5--5--7--5-----5-----5--|--10--10--10----------5--2--2--------
B|-----------------7-----7-----|--------------12--12-----------5--3--
G|-----------------------------|-------------------------------------
D|-----------------------------|-------------------------------------
A|-----------------------------|-------------------------------------
E|-----------------------------|-------------------------------------

Stave 8:

E|-----------------------|--5--5--5--2--2--5--5--|--
B|--------5--7--5--------|-----------------------|--
G|-----------------------|-----------------------|--
D|-----------------------|-----------------------|--
A|-----------------------|-----------------------|--
E|-----------------------|-----------------------|--

Stave 9:

E|--5--5--5--5--7-----7--|------10--10--10--10--12--14--12------|--
B|-----------------7-----|--12------------------------------12--|--
G|-----------------------|--------------------------------------|--
D|-----------------------|--------------------------------------|--
A|-----------------------|--------------------------------------|--
E|-----------------------|--------------------------------------|--

Stave 10:

E|--14--14--14--14--15--14--14--12--|--
B|----------------------------------|--
G|----------------------------------|--
D|----------------------------------|--
A|----------------------------------|--
E|----------------------------------|--

Stave 11:

E|--3--5--3--5--7--5-----------|----------------7--9--10--9--7--|--
B|--------------------7--3-----|--8--10--8--10------------------|--
G|--------------------------4--|--------------------------------|--
D|-----------------------------|--------------------------------|--
A|-----------------------------|--------------------------------|--
E|-----------------------------|--------------------------------|--

Stave 12:

E|--5-----5--5--5--7--5-----------|-----------------------------------|--
B|-----7-----------------7--3-----|--10--10--10--7--7--7--5--3--7--5--|--
G|-----------------------------4--|-----------------------------------|--
D|--------------------------------|-----------------------------------|--
A|--------------------------------|-----------------------------------|--
E|--------------------------------|-----------------------------------|--

Stave 13:

E|-----------------------------------|-----------------------------------|--
B|--10--10--10--7--7--7--5--3--7--5--|--10--10--10--7--7--7--5--3--5--3--|--
G|-----------------------------------|-----------------------------------|--
D|-----------------------------------|-----------------------------------|--
A|-----------------------------------|-----------------------------------|--
E|-----------------------------------|-----------------------------------|--

http://www.guitartabcreator.com
Guitar Tab Creator is intended to store guitar tab created through the tool. It currently does not support in-line text editing. Any text you place in here will be lost. If you need to comment on your tab, please use the "Tab Notes" section located below.