Sound will begin in 5 seconds

Without Light

Chords
01234567891011121314151617181920212223
E
B
G
D
A
E
B
0 1 2 3 4 5 6 7 8 9 10 11 12 13 14 15 16 17 18 19 20 21 22 23
(/) Slide Up  (\) Slide Down  (h) Hammer On  (p) Pull Off  (b) Bend (r) Release (v) Vibrato

1. Intro Riff x4

E|---------------------------
B|---------------------------
G|---------------------------
D|--9--8--10--9--8--7--9--8--
A|--7--6--8---7--6--5--7--6--
E|---------------------------

2. Opening Riff x4

E|--------------------------------------------------------------------------------------------------
B|--------------------------------------------------------------------------------------------------
G|-----------------------3--------------------------------------------------------------------------
D|--2--3--2-----2--3--2--1--------------------------------------------------------------------------
A|--0--1--0--3--0--1--0-----------------------------------------------------------------------------
E|-----------1--------------------------------------------------------------------------------------

3. Break x1

E|--------------------------------------------
B|--------------------------------------------
G|-----------------------------------3--------
D|--------------------------5-----4--1--3--2--
A|--7-----7-----7-----7-----3-----2-----1--0--
E|--5-----5-----5-----5-----------------------

4. Semi Main Riff x8

E|--------------------------------------------------------------------------------------------------
B|--------------------------------------------------------------------------------------------------
G|--------2--------------3--------2-----------------------2-----------5--1--------2--------------3--
D|-----2-----2-----5--3--------2-----2-----5--4--------2-----2-----5-----------2-----2-----5--4--1--
A|--0-----------0--3--1-----0-----------0--3--2--6--0-----------0--3--------0-----------0--3--2-----
E|-----------------------------------------------4--------------------------------------------------

5. Bridge x1

E|--------------------------
B|--0--3--------------------
G|--2--1--0--3--------------
D|--------2--1--3-----------
A|--------------3--6--3--2--
E|-----------------4--1--0--

6. Chorus Riff x4

E|--------------------------------------------------------
B|--------------------------------------------------------
G|--------------------------------------------------------
D|--------------7--9-----9--------------------------------
A|--------------5--7-----7--------------7--5--7--5--7--5--
E|--0--0--0--0--------0-----0--0--0--0--5--3--5--3--5--3--

7. Main Riff x8

E|-------------------------------------------------------------------------------------------------------
B|-------------------------------------------------------------------------------------------------------
G|--------9----------------10--------9-------------------------------------------------------------------
D|-----9-----9-----12--10---------9-----9-----12--11--8--------------------------------------------------
A|--7-----------7--10--8-------7-----------7--10--9---6--------------------------------------------------
E|-------------------------------------------------------------------------------------------------------

http://www.guitartabcreator.com
Guitar Tab Creator is intended to store guitar tab created through the tool. It currently does not support in-line text editing. Any text you place in here will be lost. If you need to comment on your tab, please use the "Tab Notes" section located below.