Sound will begin in 5 seconds

Like a Soldier by Cady Groves

01234567891011121314151617181920212223
E
B
G
D
A
E
B
0 1 2 3 4 5 6 7 8 9 10 11 12 13 14 15 16 17 18 19 20 21 22 23
Song Science #1: How Pros Use 6 Chords to Write Hit Songs
(/) Slide Up  (\) Slide Down  (h) Hammer On  (p) Pull Off  (b) Bend (r) Release (v) Vibrato

Stave 1:

E|------------------------------------------------------------------------------------------
B|--------10-----10--------10-----10--------3-----3--------3-----3--------5-----5--------5--
G|-----9------9---------9------9---------2-----2--------2-----2--------6-----6--------6-----
D|------------------------------------------------------------------------------------------
A|--9----------------9----------------2--------------2--------------7--------------7--------
E|------------------------------------------------------------------------------------------

Stave 2:

E|----------------------------------
B|----------2-----2--------2-----2--
G|-------2-----2--------2-----2-----
D|----------------------------------
A|----0--------------0--------------
E|----------------------------------

Stave 3:

E|----------------------------------
B|-------------------------9-----9--
G|----------7-----7-----9-----9-----
D|-------7-----7--------------------
A|----5--------------7--------------
E|----------------------------------

Stave 4:

E|----------------------------------------------------------------------------------------------------
B|----------2--------2-----------7-----------7-----------7--------10--------10--------10-----------4--
G|-------2--------2-----------7-----------7-----------7--------9---------9---------9------------4-----
D|-------------------------7-----------7-----------7-----------------------------------------4--------
A|----0--------0--------------------------------------------9---------9---------9---------------------
E|----------------------7-----------7-----------7-----------------------------------------4-----------

Stave 5:

E|--------------------------------------------------
B|-------------7-----------9--------10-----------4--
G|----------7-----------9--------9------------4-----
D|-------7-----------9---------------------4--------
A|--------------------------------------------------
E|----7-----------9-----------9---------4-----------

Stave 6:

E|----
B|----
G|----
D|----
A|----
E|----

http://www.guitartabcreator.com
Guitar Tab Creator is intended to store guitar tab created through the tool. It currently does not support in-line text editing. Any text you place in here will be lost. If you need to comment on your tab, please use the "Tab Notes" section located below.