Vierra - Terlalu lama SOlo

Chords
01234567891011121314151617181920212223
E
B
G
D
A
E
B
0 1 2 3 4 5 6 7 8 9 10 11 12 13 14 15 16 17 18 19 20 21 22 23
e|----------------------------------------------------------------------------|
B|----------------------------------------------------------------------------|
G|------10--12--12b~10-12b10-------10-12b-12p10-------------------------------|
D|-10h12----------------------10h12-------------------------------------------|
A|----------------------------------------------------------------------------|
E|----------------------------------------------------------------------------|

e|---------13----------12-13--------------------------------------------------|
B|------------13--------------------------------------------------------------|
G|------13-----------13-------------------------------------------------------|
D|-10h12--------10h12---------------------------------------------------------|
A|----------------------------------------------------------------------------|
E|----------------------------------------------------------------------------|

e|-----------------------------------------------------------------------------|
B|13~-11-10--------13~-10-11-10------------------------------------------------|
G|---------12-10---------------12-10-------------------------------------------|
D|--------------12-------------------------------------------------------------|
A|-----------------------------------------------------------------------------|
E|-----------------------------------------------------------------------------|

e|13-10-12----10--------------------------------------------------------------|
B|---------13---11-13-10-11--10-----------------------------------------------|
G|-------------------------12--12-10----10-12b-12-----------------------------|
D|-----------------------------------12---------------------------------------|
A|----------------------------------------------------------------------------|
E|----------------------------------------------------------------------------|

e|-8-5--8-5--8--6-5----13-8-5-8-15-8-5-8-17-8-5-8-15-8-5-8-13--| yg terakhir pake tapping
B|-------------------------------------------------------------|
G|-------------------------------------------------------------|
D|-------------------------------------------------------------|
A|-------------------------------------------------------------|
E|-------------------------------------------------------------|
[[],[],[],[],[],[]]

Member for

8 years 7 months
Submitted by noerroman on Mon, 2011-10-10 02:38