Sound will begin in 5 seconds

Gravity (Try!) Solo

01234567891011121314151617181920212223
E
B
G
D
A
E
B
0 1 2 3 4 5 6 7 8 9 10 11 12 13 14 15 16 17 18 19 20 21 22 23
Song Science #1: How Pros Use 6 Chords to Write Hit Songs
(/) Slide Up  (\) Slide Down  (h) Hammer On  (p) Pull Off  (b) Bend (r) Release (v) Vibrato

Stave 1:

E|-------15v--------------------------------------------------------------15v------
B|-15-17------17----------------------------------------------------15-17------17--
G|---------------------12-14-12h14v----12-12v--------------------------------------
D|------------------14-------------------------------------------------------------
A|---------------------------------------------------------------------------------
E|---------------------------------------------------------------------------------

Stave 2:

E|---------------------------------------------------------------------------------
B|---------------------------------------------------------------------------------
G|-----14--14h16-14h16--12-12-14---------------------------------------------------
D|--17---------------------------14v-----------------------------------------------
A|---------------------------------------------------------------------------------
E|---------------------------------------------------------------------------------

Stave 3:

E|-------15-17--15h17-15h17--15-----------------------15-17--15h17-15h17-15--------
B|-15-17------------------------17h15-----------15h17-----------------------17h15--
G|---------------------------------------------------------------------------------
D|---------------------------------------------------------------------------------
A|---------------------------------------------------------------------------------
E|---------------------------------------------------------------------------------

Stave 4:

E|-19-15----------------------------------------------------------------------------------
B|-------17h15-17v-\15h12----15v----------------------------12----12----------------------
G|-------0----------------14------14/16v--16-14-------12-14----14----14-12-14----12-------
D|----------------------------------------------14\12-------------------------14----12-14-
A|----------------------------------------------------------------------------------------
E|----------------------------------------------------------------------------------------

Stave 5:

E|-----------------------------------------
B|-----------------------------------------
G|-----------------------------------------
D|-10-12-8h9b10r9--8-----------------------
A|-----------------------------------------
E|-----------------------------------------

http://www.guitartabcreator.com
Guitar Tab Creator is intended to store guitar tab created through the tool. It currently does not support in-line text editing. Any text you place in here will be lost. If you need to comment on your tab, please use the "Tab Notes" section located below.