Sound will begin in 5 seconds

Dueling Banjos

01234567891011121314151617181920212223
E
B
G
D
A
E
B
0 1 2 3 4 5 6 7 8 9 10 11 12 13 14 15 16 17 18 19 20 21 22 23
Song Science #1: How Pros Use 6 Chords to Write Hit Songs
(/) Slide Up  (\) Slide Down  (h) Hammer On  (p) Pull Off  (b) Bend (r) Release (v) Vibrato

Stave 1:

E|--2--4--4--------|--
B|--3--5-----------|--
G|--2--4-----------|--
D|-----------------|--
A|-----------------|--
E|-----------------|--

Stave 2:

E|---------------------0----------0--|--
B|----------------0------------------|--
G|-------------0---------------0-----|--
D|--------0--------------------------|--
A|-----0--------------------0--------|--
E|--0--------------------------------|--

Stave 3:

E|-----3--3--3----3----3-------------------------|--
B|-----0--0--0----1----0------3--3--3----5----3--|--
G|-----0--0--0----0----0------4--4--4----5----4--|--
D|-----0--0--0----2----0------0--0--0----0----0--|--
A|-----0--0--0----0----0-------------------------|--
E|-----3--3--3----3----3-------------------------|--

Stave 4:

E|----------------------------------------------------------|--
B|-------------------------------0--1--3--0--1-----0--------|--
G|--4--5--7--4--5-----4-------------------------2-----0--2--|--
D|-----------------7-----5--7-------------------------------|--
A|----------------------------------------------------------|--
E|----------------------------------------------------------|--

Stave 5:

E|----------------------------------------0-----0-----|--
B|-------------------------------1--1--3-----1-----3--|--
G|----------------------------0-----------------------|--
D|--------------4-----4-------------------------------|--
A|-----5--5--7-----5-----7----------------------------|--
E|--5-------------------------------------------------|--

Stave 6:

E|----------------------------------------------------------|--
B|-------------------------------------------0--1--3--1--0--|--
G|-------------------------------0--0--0--2-----------------|--
D|--------------------0-------------------------------------|--
A|-----------0--2--3-----3--2-------------------------------|--
E|--3--3--3-------------------------------------------------|--

Stave 7:

E|-------------------------------------------0--1--3--1--0--|--
B|-------------------------------1--1--1--3-----------------|--
G|--------------------0-------------------------------------|--
D|-----------0--2--3-----3--2-------------------------------|--
A|--3--3--3-------------------------------------------------|--
E|----------------------------------------------------------|--

Stave 8:

E|----------------------------------------------------------|--
B|-------------------------------------------0--1--3--1--0--|--
G|-------------------------------0--0--0--2-----------------|--
D|--------------------0-------------------------------------|--
A|-----------0--2--3-----3--2-------------------------------|--
E|--3--3--3-------------------------------------------------|--

Stave 9:

E|-------------------------------------------0--1--3--1--0--|--
B|-------------------------------1--1--1--3-----------------|--
G|--------------------0-------------------------------------|--
D|-----------0--2--3-----3--2-------------------------------|--
A|--3--3--3-------------------------------------------------|--
E|----------------------------------------------------------|--

Stave 10:

E|----------------------------------------------------------|--
B|-------------------------------------------0--1--3--1--0--|--
G|-------------------------------0--0--0--2-----------------|--
D|--------------------0-------------------------------------|--
A|-----------0--2--3-----3--2-------------------------------|--
E|--3--3--3-------------------------------------------------|--

Stave 11:

E|--3--3--3----3----3-----------------------|--
B|--0--0--0----1----0----3--3--3----5----3--|--
G|--0--0--0----0----0----4--4--4----5----4--|--
D|--0--0--0----2----0----0--0--0----0----0--|--
A|--0--0--0----0----0-----------------------|--
E|--3--3--3----3----3-----------------------|--

Stave 12:

E|----------------------------------------------------------|--
B|-------------------------------0--1--3--0--1-----0--------|--
G|--4--5--7--4--5-----4-------------------------2-----0--2--|--
D|-----------------7-----5--7-------------------------------|--
A|----------------------------------------------------------|--
E|----------------------------------------------------------|--

Stave 13:

E|--------------0-----0-----------------0--------------------0--1--------------------------|--|--
B|-----1--1--3-----1-----3-----1--1--3-----1--0-----1--1--3--------3--1--0--------0--1--1--|--|--
G|--0-----------------------0--------------------0--------------------------0--2-----------|--|--
D|-----------------------------------------------------------------------------------------|--|--
A|-----------------------------------------------------------------------------------------|--|--
E|-----------------------------------------------------------------------------------------|--|--

http://www.guitartabcreator.com
Guitar Tab Creator is intended to store guitar tab created through the tool. It currently does not support in-line text editing. Any text you place in here will be lost. If you need to comment on your tab, please use the "Tab Notes" section located below.