Sound will begin in 5 seconds

The Legend of Zelda - Lon Lon Ranch

01234567891011121314151617181920212223
E
B
G
D
A
E
B
0 1 2 3 4 5 6 7 8 9 10 11 12 13 14 15 16 17 18 19 20 21 22 23
Song Science #1: How Pros Use 6 Chords to Write Hit Songs
(/) Slide Up  (\) Slide Down  (h) Hammer On  (p) Pull Off  (b) Bend (r) Release (v) Vibrato

Stave 1:

E|----------2----2-------------------------------------------------------3----2------------------
B|----------3----3-------------0-----------------2----2-------------0-----------------2----2-----
G|-------2----------2----------0-----------------3----3-------------0-----------------3----3-----
D|--0-----------------------0-----------------4----------4-------0------------0----4----------4--
A|-----------------------------------------------------------------------------------------------
E|---------------------5------------7----5------------------5------------------------------------

Stave 2:

E|------------------------------------------------------------------------------------------2-----
B|----------0----0--------3--0-------------3--0-------------3--0-------0---------0-----0----------
G|----------0----0--------------2----------------2----------------2---------2----0-----0-------3--
D|-------0----------------0-----4----4--0--------4----4--0--------4----3------------0-------------
A|-----------------------------------------4----------------3-------------------------------1-----
E|--5-----------------------------------------------------------------------5---------------------

Stave 3:

E|--0-----2--9--10--7-------------10-----------10--9--7--5------------------------------------------
B|------------------7-----7-------0------0-----0---------5-----5-----3--0-------------3--0----------
G|-----3-----9---------7-----7--------0-----0------9--------6-----6--------2----------------2-------
D|------------------0-------------0----------------------0-----------0-----4----4--0--------4-------
A|--------1--0-------------------------------------0----------------------------------4-------------
E|--------------------------------------------------------------------------------------------------

Stave 4:

E|----------------------------------------
B|--------3--0-------0---------0-----0----
G|--------------2---------2----0-----0----
D|--4--0--------4----3------------0-------
A|--------3-------------------------------
E|------------------------5---------------

Stave 5:

E|--
B|--
G|--
D|--
A|--
E|--

http://www.guitartabcreator.com
Guitar Tab Creator is intended to store guitar tab created through the tool. It currently does not support in-line text editing. Any text you place in here will be lost. If you need to comment on your tab, please use the "Tab Notes" section located below.