Sound will begin in 5 seconds

Inuyasha - Beautiful Memories

01234567891011121314151617181920212223
E
B
G
D
A
E
B
0 1 2 3 4 5 6 7 8 9 10 11 12 13 14 15 16 17 18 19 20 21 22 23
Song Science #1: How Pros Use 6 Chords to Write Hit Songs
(/) Slide Up  (\) Slide Down  (h) Hammer On  (p) Pull Off  (b) Bend (r) Release (v) Vibrato

Stave 1:

E|--0--5--3-----0--5--3-----0-----------0--------0--5--3-----0--5--7--3--0------------------
B|--3--------3--3--------3-----3-----3--3--------3--------3--3--------------3---------------
G|--2-----------0-----------2-----2-----0--------2-----------0-----------2-----2--0--2------
D|-----------------------------------------------------------------------------0-----0------
A|-----------------------------------------------------------------------------------0------
E|--0-----------3-----------1-----------3--------0-----------3-----------1-----3------------

Stave 2:

E|--3----5------2--0-----2--0----0--------0---------------------------0--0----2-------------
B|--------------0-----0-----2-------3--------3----3--2-----3--2----3-----2----2-------------
G|--0----2------0----------------2-----2----------0-----0-----0-----------------------------
D|--------------0----------------------------0---------------------------0----0--------2----
A|--------------------------0----------------2----0-----------0------------------0--3-------
E|--0-----------3----------------2----------------------------------------------------------

Stave 3:

E|--2--0-----2--0----0--------0---------------------------------------2-----------0--5--0----
B|--0-----0-----2-------3--------3----3--2-----3--2-------------------0-----------2----------
G|--0----------------2-----2----------0-----0-----0----4--6--2--------0-----------------2----
D|--0----------------------------0------------------------4--4--------0-----0--4-------------
A|--------------0----------------2----0-----------0-------5--5-----------2--------0-----4----
E|--3----------------2------------------------------------------0--2--3----------------------

Stave 4:

E|------------------------------------0--0-----------2-------2-----------0--5--5-----7--9--7--
B|-----------3----3-----------2----3-----2-------------------0-----------2-----2--------------
G|--------2-------0--------0--4----------------------2-------0-----------------------------4--
D|-----2-----0----------0-------------------------0----------0-----0--4-----------------7--4--
A|--4--------2----2--2-------------------0--0--4----------4-----2--------0-----0--4--7--------
E|----------------------------0----------------------2-------3--------------------------------

Stave 5:

E|-----2-----------0---------------------------------2-----7-----------------------5-----5-----
B|--0--0-----------2----3----------------------------0-----0-----0-----------5-----2-----2-----
G|-----0---------------------------------------------------0-----0-----------2-----------2-----
D|-----0-----0--4-------4-----------4-------------0-----0-----0-----0--------------------------
A|--------2--------0----5--0--4--5----------------------------------------4-----4-----4--------
E|-----3---------------------------------0--2--3-----------------------2-----------------------

Stave 6:

E|-----------10-------3-----------------5-----12--------------2-----7--------------------------
B|-----------0--------0-----------------0-----10--------------0-----0-----0-----------5--------
G|--------------------------------------0-----11--------------------0-----0-----------2--------
D|--------0------0-------0-----0---------------------------0-----0-----0-----0-----------------
A|--4--2--------------------2--------4-----4---------0--2--------------------------4-----4-----
E|--------------------------------2---------------9-----------------------------2--------------

Stave 7:

E|--5-----5-----------10-----3----------------3----0----2--
B|--2-----2-----------0------0-----------3--------------2--
G|--------2------------------------------0--------------2--
D|-----------------0------0-----0-----0-----------------0--
A|-----4-----4--2------------------2-----1-----------------
E|---------------------------------------------------------

http://www.guitartabcreator.com
Guitar Tab Creator is intended to store guitar tab created through the tool. It currently does not support in-line text editing. Any text you place in here will be lost. If you need to comment on your tab, please use the "Tab Notes" section located below.