Sound will begin in 5 seconds

Muse - uprising

01234567891011121314151617181920212223
E
B
G
D
A
E
B
0 1 2 3 4 5 6 7 8 9 10 11 12 13 14 15 16 17 18 19 20 21 22 23
Song Science #1: How Pros Use 6 Chords to Write Hit Songs
(/) Slide Up  (\) Slide Down  (h) Hammer On  (p) Pull Off  (b) Bend (r) Release (v) Vibrato

Stave 1:

E|--17--13---------------------
B|-----------------------------
G|----------14--15--17p15--14--
D|-----------------------------
A|-----------------------------
E|-----------------------------

Stave 2:

E|--17--12----------18--17p15--17--
B|----------14---------------------
G|--------------14-----------------
D|---------------------------------
A|---------------------------------
E|---------------------------------

Stave 3:

E|--17--13--------------13--17------18--17p15--17--
B|----------15------15----------15-----------------
G|--------------14---------------------------------
D|-------------------------------------------------
A|-------------------------------------------------
E|-------------------------------------------------

Stave 4:

E|--17--12--------------12--17------15--13p12--13-----
B|----------14------14-----------------------------15b
G|--------------14--------------14--------------------
D|----------------------------------------------------
A|----------------------------------------------------
E|----------------------------------------------------

http://www.guitartabcreator.com
Guitar Tab Creator is intended to store guitar tab created through the tool. It currently does not support in-line text editing. Any text you place in here will be lost. If you need to comment on your tab, please use the "Tab Notes" section located below.