Sound will begin in 5 seconds

Lindsey Stirling - Crystallize TAB !!!

01234567891011121314151617181920212223
E
B
G
D
A
E
B
0 1 2 3 4 5 6 7 8 9 10 11 12 13 14 15 16 17 18 19 20 21 22 23
Song Science #1: How Pros Use 6 Chords to Write Hit Songs
(/) Slide Up  (\) Slide Down  (h) Hammer On  (p) Pull Off  (b) Bend (r) Release (v) Vibrato

Stave 1:

E|--------------
B|--18--17--15--
G|--------------
D|--------------
A|--------------
E|--------------

Stave 2:

E|----------------------|------------------------------------------------------------
B|--20--18--17--18--15--|--15--17--18--22--20--17--18--20--17--15--------------------
G|----------------------|------------------------------------------------------------
D|----------------------|------------------------------------------------------------
A|----------------------|------------------------------------------------------------
E|----------------------|------------------------------------------17--15--13/15h17--

Stave 3:

E|----------------------------------------------------------------------------------------
B|----------------------------------------------------------------------------------------
G|----------------------------------------------------------------------------------------
D|----17--15--14--15--12------12--15--17--15--14--15--19--15--17--14--15--17--14--15--12--
A|------------------------12--------------------------------------------------------------
E|----------------------------------------------------------------------------------------

Stave 4:

E|----------------------
B|----------------------
G|----------------------
D|--12--12--14--15--19--
A|----------------------
E|----------------------

Stave 5:

E|----
B|----
G|----
D|----
A|----
E|----

http://www.guitartabcreator.com
Guitar Tab Creator is intended to store guitar tab created through the tool. It currently does not support in-line text editing. Any text you place in here will be lost. If you need to comment on your tab, please use the "Tab Notes" section located below.