Sound will begin in 5 seconds

In flames _ Only for the weak ___ C F A# D# G C :_:_:_:_:_: http://www.songsterr.com/a/wsa/in-flames-only-for-the-weak-tab-s9665t0

01234567891011121314151617181920212223
E
B
G
D
A
E
B
0 1 2 3 4 5 6 7 8 9 10 11 12 13 14 15 16 17 18 19 20 21 22 23
Song Science #1: How Pros Use 6 Chords to Write Hit Songs
(/) Slide Up  (\) Slide Down  (h) Hammer On  (p) Pull Off  (b) Bend (r) Release (v) Vibrato

Stave 1:

E|--------------------|-----------------------
B|--------------------|-----------------------
G|-----4-----2--4--5--|--4--2--------2--------
D|--5-----5-----------|--------5--5-----4-----
A|--------------------|--------------------5--
E|--------------------|-----------------------

Stave 2:

E|-----------------------|--------
B|-----------------------|--------
G|-----4-----2-----------|--------
D|--5-----5-----5--4--2--|--4-----
A|-----------------------|-----5--
E|-----------------------|--------

Stave 3:

E|-----|--------------------------------
B|-----|--------------------------------
G|-----|--------------------------------
D|-----|--------------------------4--5--
A|--3--|-----2-----2-----2--------------
E|-----|--0--0--0--0--0--0--0--0--------

Stave 4:

E|--------------------------------------------------------------------
B|--------------------------------------------------------------------
G|--------------------------------------------------------------------
D|-----5--7--------------------4--5-----4--5--------------------4--5--
A|--------------2-----2--------------------------2-----2--------------
E|--0--------0--0--0--0--0--0--------0--------0--0--0--0--0--0--------

Stave 5:

E|-----------------------------------|---------------------|------|------
B|-----------------------------------|---------------------|------|------
G|-----------------------------------|--12--11--12--11--9--|--11--|------
D|-----5--7--------------------------|---------------------|------|--12--
A|--------------2-----2--------------|---------------------|------|------
E|--0--------0--0--0--0--0--0--0--0--|---------------------|------|------

http://www.guitartabcreator.com
Guitar Tab Creator is intended to store guitar tab created through the tool. It currently does not support in-line text editing. Any text you place in here will be lost. If you need to comment on your tab, please use the "Tab Notes" section located below.