Sound will begin in 5 seconds

BANGARANG

01234567891011121314151617181920212223
E
B
G
D
A
E
B
0 1 2 3 4 5 6 7 8 9 10 11 12 13 14 15 16 17 18 19 20 21 22 23
Song Science #1: How Pros Use 6 Chords to Write Hit Songs
(/) Slide Up  (\) Slide Down  (h) Hammer On  (p) Pull Off  (b) Bend (r) Release (v) Vibrato

Stave 1:

E|---------------------------------------------------------------------
B|-----------------------13p11-----------------------------------------
G|-----12--12--12--5--5---------------------------------12--15p12--12--
D|-----12--12--12---------------------------------------12-------------
A|--5------------------------------------------------------------------
E|--3---------------------------15--15--15--15--15--15-----------------

Stave 2:

E|-------------------------------------------------------------------------
B|-----------------------13p11---------------------------------------------
G|-----12--12--12--5--5---------------------------------12--10h12--12--12--
D|-----12--12--12---------------------------------------12-----------------
A|--5----------------------------------------------------------------------
E|--3---------------------------15--15--15--15--15--15---------------------

Stave 3:

E|----------------------------------10--10h11p10------------------------------
B|--------------------------11--13------------------------------------11------
G|--12--12--12--12--12--12------------------------12--12--12--12--12------12--
D|----------------------------------------------------------------------------
A|----------------------------------------------------------------------------
E|----------------------------------------------------------------------------

Stave 4:

E|----------------------------------10--10h11--10------------------------------------------------
B|--------------------------11--13-------------------------------------13p11------13p11------13--
G|--12--12--12--12--12--12-------------------------12--12--12--12--12---------12---------12------
D|-----------------------------------------------------------------------------------------------
A|-----------------------------------------------------------------------------------------------
E|-----------------------------------------------------------------------------------------------

Stave 5:

E|------------------15--15/15--15--15------------------15--15--15--20b
B|--------------------------------------------------------------------
G|--12--12------12---------------------12--12------12-----------------
D|--12--12------12---------------------12--12------12-----------------
A|--------------------------------------------------------------------
E|----------15---------------------------------15---------------------

Stave 6:

E|--------------------------------------------
B|--0--0--8--0--8--8--0--0--8--8--8--0--8--8--
G|--------------------------------------------
D|--------------------------------------------
A|--------------------------------------------
E|--------------------------------------------

http://www.guitartabcreator.com
Guitar Tab Creator is intended to store guitar tab created through the tool. It currently does not support in-line text editing. Any text you place in here will be lost. If you need to comment on your tab, please use the "Tab Notes" section located below.