Sound will begin in 5 seconds

Udenfor Sæsonen riff

01234567891011121314151617181920212223
E
B
G
D
A
E
B
0 1 2 3 4 5 6 7 8 9 10 11 12 13 14 15 16 17 18 19 20 21 22 23
Song Science #1: How Pros Use 6 Chords to Write Hit Songs
(/) Slide Up  (\) Slide Down  (h) Hammer On  (p) Pull Off  (b) Bend (r) Release (v) Vibrato

Stave 1:

E|-----------------|--------------10-----------|-----
B|-----------10b12r|--10p8h10b12------12r10p8--|-----
G|-----------------|---------------------------|--9--
D|-----------------|---------------------------|-----
A|-----------------|---------------------------|-----
E|-----------------|---------------------------|-----

Stave 2:

E|----------------------------------|-----
B|----------8-----------------------|-----
G|--7--7h9-----9p7h9p7h9------------|-----
D|------------------------8--7------|-----
A|------------------------------10--|--7--
E|----------------------------------|-----

Stave 3:

E|-----------------------|-----
B|--10--8p7---------7h8--|-----
G|-----------9p7h9-------|--9--
D|-----------------------|-----
A|-----------------------|-----
E|-----------------------|-----

Stave 4:

E|--------7--10--10b12--
B|-----8----------------
G|--9-------------------
D|----------------------
A|----------------------
E|----------------------

Stave 5:

E|---------------------------
B|----------8-------------7--
G|-------7-------------7-----
D|--7h9-----------7h9--------
A|---------------------------
E|---------------------------

Stave 6:

E|------------------------|-----
B|-------------8p7--------|-----
G|-------7--9-------9--7--|--9--
D|--7h9-------------------|-----
A|------------------------|-----
E|------------------------|-----

Stave 7:

E|---------------------
B|---------------------
G|--7h9--9p7--9--9-----
D|------------------9--
A|---------------------
E|---------------------

Stave 8:

E|--7-----7-------------------------------------
B|-----------10b12r10p8--10--10--8--------8-----
G|----------------------------------9--7-----9--
D|----------------------------------------------
A|----------------------------------------------
E|----------------------------------------------

Stave 9:

E|------10--12--10----------------------------------------------------
B|--12--------------12--10--10----------------------------------------
G|------------------------------12--9--9--12--9-----------------------
D|-----------------------------------------------12--9--9-------------
A|---------------------------------------------------------12--9------
E|----------------------------------------------------------------12--

Stave 10:

E|---------------------------
B|--8p7--------------10--10--
G|-------9--7--9/11----------
D|---------------------------
A|---------------------------
E|---------------------------

Stave 11:

E|---------12-------------------------------------------
B|--10b12------12r10--8--10--8-----8--------------------
G|------------------------------9--------9--7-----------
D|---------------------------------------------7--8--9--
A|------------------------------------------------------
E|------------------------------------------------------

http://www.guitartabcreator.com
Guitar Tab Creator is intended to store guitar tab created through the tool. It currently does not support in-line text editing. Any text you place in here will be lost. If you need to comment on your tab, please use the "Tab Notes" section located below.