Sound will begin in 5 seconds

luys de narvaez

01234567891011121314151617181920212223
E
B
G
D
A
E
B
0 1 2 3 4 5 6 7 8 9 10 11 12 13 14 15 16 17 18 19 20 21 22 23
Song Science #1: How Pros Use 6 Chords to Write Hit Songs
(/) Slide Up  (\) Slide Down  (h) Hammer On  (p) Pull Off  (b) Bend (r) Release (v) Vibrato

(W|WW) Whole (H|HH) Half (Q|QQ) Quarter (E|EE) 8th (S|SS) 16th (T|TT) 32nd (X|XX) 64th

Stave 1:
t: W H H H H H H H H Q Q E E E E H H
E|--0--|--0--3--|--2--0--|--7-----|--5--3--|-----3--2--3--2--0--|-----2--|--
B|-----|--------|--------|--------|--------|--------------------|--3-----|--
G|-----|--------|--------|--------|--------|--5-----------------|--------|--
D|-----|--------|--------|-----5--|--4--2--|--------------------|-----0--|--
A|-----|--------|--------|--7-----|--------|--------------------|--2-----|--
E|-----|--------|--------|--------|--------|--------------------|--------|--

Stave 2:
t: H H Q Q Q E E H Q Q H H Q Q Q Q Q Q H H Q Q
E|--0-----|-----------------|-----------|--------|--------------|-----------|-----------|--
B|-----3--|--2--------------|--0--------|--------|--------------|--------0--|--------0--|--
G|-----5--|-----2--4--2--4--|--1-----0--|--3--1--|-----1--0-----|--0--------|--3--------|--
D|--------|--4--------------|-----------|--1--2--|-----------2--|-----2--2--|-----1-----|--
A|--4--2--|-----------------|-----------|--------|--2-----------|--0--------|-----------|--
E|--------|-----------------|--0--3-----|--2--0--|--------------|--------3--|--2--------|--

Stave 3:
t: Q Q Q Q Q Q Q Q Q Q Q Q Q Q Q Q Q Q Q Q H H H H H H
E|--------0-----|--------------|--------2--4--|--5-----------|-----2--3--5--|--7--5--|-----3--|--2-----|--
B|--2--4--------|-----------2--|--3--5--------|--------2--3--|--5-----------|--------|--3--5--|-----0--|--
G|-----------0--|--2--3--5-----|--------------|--3--5--------|--------------|--5--6--|--------|--------|--
D|--2-----------|--------------|--------------|--------------|--------------|--------|--------|--------|--
A|--------------|--------------|--------------|--------------|--------------|--------|--------|--------|--
E|--0-----------|--------------|--------------|--------------|--------------|--------|--------|--------|--

Stave 4:
t: H Q Q Q Q H H H H Q Q Q Q H H H H Q Q H H
E|--0--3-----|-----2--0--|--------|--0--------|-----------|-----2--|--3-----2--|-----0--|--
B|--1-----0--|-----------|-----4--|-----------|-----------|--------|-----------|--3-----|--
G|-----------|--1-----3--|--------|-----1-----|-----0-----|--------|-----5-----|--------|--
D|-----------|-----------|--0-----|--2--------|--------2--|-----1--|--2--------|-----2--|--
A|-----------|-----------|-----2--|--3-----2--|--------0--|--------|-----------|--------|--
E|-----------|-----------|--------|-----------|--3--------|--2-----|--0--------|--------|--

Stave 5:
t: Q Q Q E E H Q Q Q Q H H H H Q Q Q Q Q Q Q Q Q Q
E|-----------------|-----------|-----------|-----0--|--3--2-----|-----0--------|--------0-----|--
B|--2--------------|--0--3-----|-----2--0--|--------|--0--------|--------2-----|-----3--------|--
G|-----2--4--2--4--|--1-----0--|-----------|-----4--|--------3--|--0--------2--|--3--------1--|--
D|--4--------------|-----------|--0-----2--|--------|-----------|--------------|--------------|--
A|-----------------|-----------|-----------|--4-----|--2--------|--------------|--------------|--
E|-----------------|-----------|-----------|--------|-----------|--------------|--------------|--

Stave 6:
t: Q Q Q Q Q Q H H H H H Q Q H Q Q Q Q H H Q Q H
E|--------------|-----------|--------|--------|-----------|--------------|--------|-----------|--
B|-----------3--|--0--2--3--|-----2--|-----3--|-----2--0--|--2--0--------|--------|-----------|--
G|-----0--1-----|--------0--|--------|--0-----|-----------|--------3--1--|--0--1--|-----0--0--|--
D|--2-----------|-----------|--2-----|--------|--2--------|--------------|--------|-----------|--
A|--------------|-----------|-----0--|-----2--|-----------|--0-----------|--2-----|--0--------|--
E|--------------|--------2--|--3-----|--2-----|--3--------|--------------|--------|--------2--|--

Stave 7:
t: H H H H H H Q Q H Q Q H H H H Q Q Q Q H
E|-----7--|--5--2--|--3--5--|-----2--3--|-----2--2--|-----0--|--5-----3--|--2--0--3--|--
B|--------|--------|--0--2--|--3-----0--|-----------|-----0--|--2--3-----|--------2--|--
G|--------|--0--3--|--------|-----------|--3-----0--|--1-----|--0--------|-----------|--
D|--------|--------|--------|-----------|-----------|--------|-----0-----|--------2--|--
A|-----7--|--------|--------|-----------|-----------|--------|-----------|-----------|--
E|--3-----|--2-----|--------|-----------|-----------|--------|-----------|-----------|--

Stave 8:
t: H H H Q Q H Q Q Q Q H Q Q H H H H Q Q Q Q H
E|-----2--|-----------|--0--------|-----------|-----------|--------|-----------|-----------|--
B|-----0--|-----0-----|--------3--|--2--0--3--|-----2--0--|--------|-----------|-----------|--
G|--3-----|--1--------|-----------|-----------|-----------|--------|--3-----1--|--0-----1--|--
D|--4--1--|--2-----0--|-----------|-----------|--0--------|-----2--|-----------|-----2-----|--
A|--------|-----------|--4--0-----|--------2--|-----------|--4-----|-----0-----|--------2--|--
E|--------|-----------|-----------|-----------|-----------|--------|-----------|-----------|--

Stave 9:
t: Q Q H Q Q H H H Q Q H H H H H Q Q H H H H H
E|-----------|-----------|--------|--------0--|--------|-----2--|--3--5--7--|-----6--|--7-----|--
B|-----------|-----------|-----0--|--2--4-----|-----3--|--2-----|-----------|--------|-----0--|--
G|-----0-----|--0--2--3--|-----1--|--0--------|-----5--|-----3--|--------5--|--7-----|--------|--
D|--------2--|--------1--|--2-----|--------2--|--4-----|--------|--5--------|-----4--|-----2--|--
A|--------0--|-----------|--------|-----------|--------|--------|--------5--|--7-----|--5-----|--
E|--3--------|--2--------|--0-----|-----------|--------|--------|-----------|--------|--------|--

Stave 10:
t: Q Q H H H H H Q Q Q Q Q Q H H H H H H E E E E
E|--------0--|--------|--------|--------------|-----------|-----0--|--2-----|--2--------------|--
B|--2--4-----|-----3--|--2-----|--0-----------|--------2--|--3-----|--2--3--|--2--------------|--
G|--------3--|--1--5--|-----4--|-----------3--|--1--0--0--|--------|--4--5--|-----2--4--2--4--|--
D|-----------|--------|--------|--------------|-----------|-----2--|--------|-----------------|--
A|--4--------|--2-----|--------|-----0--2-----|--------0--|--------|--------|-----------------|--
E|-----------|--------|-----2--|--3-----------|-----------|--3-----|--2-----|--2--------------|--

Stave 11:
t: H H Q Q H Q E E H H H Q Q H Q E E H H H Q Q H
E|-----3--|-----2--2--|-----0--2--0--|--2--3--|-----2--2--|-----0--2--0--|--2-----|-----------|--
B|--4-----|-----------|--0-----------|-----0--|-----------|--0-----------|--------|-----------|--
G|--5-----|--------3--|--1-----------|--------|--------3--|--1-----------|--0--1--|-----0--0--|--
D|--4--2--|--------1--|--2-----------|--1--2--|--------1--|--2-----------|--------|-----------|--
A|--2-----|--2--------|--------------|--2-----|--2--------|--------------|--2-----|--------0--|--
E|-----0--|-----------|--------------|-----0--|-----------|--------------|--------|--2--------|--

Stave 12:
t: H Q Q Q Q Q Q Q Q H H H H H H Q Q H H H H H H
E|-----------|-----0--2-----|--------0--|--------|-----2--|--0--------|--------|--------|-----2--|--
B|--0-----2--|--3--------2--|--3--0--2--|-----3--|--2-----|--0--3-----|--2--0--|--------|--0-----|--
G|-----------|--0-----------|-----------|--3--5--|-----4--|--1-----0--|-----0--|--1--4--|--0-----|--
D|-----2-----|--------------|-----------|--------|-----4--|-----------|--2--0--|--2--2--|-----1--|--
A|-----------|--------------|-----------|--------|--------|-----------|--------|-----4--|--2-----|--
E|--3--------|--2-----------|-----------|--------|--------|-----------|--------|--------|--------|--

Stave 13:
t: H H H H H H H H H H H H H H H H H H H H H H
E|--3--0--|--2--7--|--3--5--|--2-----|--3--0--|-----2--|-----0--|--------|--------|-----2--|-----7--|--
B|-----5--|-----4--|--5-----|--2--3--|-----0--|--2-----|--3-----|-----2--|--3--0--|--------|-----4--|--
G|--------|--------|--6-----|--3--5--|-----2--|--3-----|-----1--|--3--0--|--------|-----4--|--5-----|--
D|--2-----|--------|--------|--------|--------|-----0--|--------|--------|-----2--|--4-----|--4-----|--
A|--------|--------|--------|--------|--------|--------|--2--3--|--0-----|--2-----|--4-----|--2-----|--
E|--0-----|--------|--------|--------|--------|--------|--------|--------|-----3--|--2-----|--------|--

Stave 14:
t: H H
E|--3--5--|--
B|--5-----|--
G|--6-----|--
D|--------|--
A|--------|--
E|--------|--

http://www.guitartabcreator.com
Guitar Tab Creator is intended to store guitar tab created through the tool. It currently does not support in-line text editing. Any text you place in here will be lost. If you need to comment on your tab, please use the "Tab Notes" section located below.