Sound will begin in 5 seconds

Ground in Gamut

01234567891011121314151617181920212223
E
B
G
D
A
E
B
0 1 2 3 4 5 6 7 8 9 10 11 12 13 14 15 16 17 18 19 20 21 22 23
Song Science #1: How Pros Use 6 Chords to Write Hit Songs
(/) Slide Up  (\) Slide Down  (h) Hammer On  (p) Pull Off  (b) Bend (r) Release (v) Vibrato

Stave 1:

E|-----------|--0--------|-----------------|--------1--|--3-----1--|--1-----0--|--0--------|----------
B|--3--0--3--|--------3--|--3--2--3--0--1--|--2--3-----|-----3-----|-----1-----|-----3-----|--1-------
G|--0--------|-----2-----|-----0-----------|-----2-----|-----0-----|-----0-----|--------2--|-------4--
D|-----------|--3--------|--2--------------|--0--------|-----------|-----------|--0--------|----------
A|-----------|-----------|-----------------|--------3--|--2--------|--3--------|-----------|----------
E|-----------|-----------|-----------------|-----------|-----------|-----------|-----------|--3-------

Stave 2:

E|-----------|-----0-----|-----------|-----------|-----------|--------0--|--0--1-----|--------3--|--
B|-----0--1--|--1-----3--|--3-----1--|--1--0-----|-----3-----|-----------|--------1--|--1--------|--
G|-----------|-----------|-----4-----|--------2--|--2-----2--|--2--0-----|-----------|-----4-----|--
D|-----------|-----------|-----------|--0--------|-----------|-----------|--0--------|-----------|--
A|-----------|-----------|-----------|--------3--|--2--------|--3--------|-----------|-----------|--
E|--3--------|--1--------|--0--------|-----------|-----------|-----------|-----------|--3--------|--

Stave 3:

E|-----3-----|-----1--------|-----0-----|-----------|-----------|--5-----3--|--------------|----------|--
B|--0-----3--|--------------|--0-----3--|-----3-----|--1-----3--|-----------|--3-----1--0--|----------|--
G|-----------|--2-----0--2--|-----------|--2--------|--4--------|--3--------|-----2--------|--2-------|--
D|-----------|--------------|-----------|-----------|--0--------|--5--------|-----0--------|--0-------|--
A|--3--------|--3-----------|--3--------|--3-----3--|-----2-----|-----4-----|--------------|----------|--
E|-----------|--------------|-----------|-----------|-----------|-----------|--------------|--3----1--|--

Stave 4:

E|--3-----------------|--1-----------------|--0-----------------|--------------------|-----------------------|--------------------|--------------------|--
B|--------0--1--------|-----0--1--0--------|--------------------|--3-----------------|--0--------------------|--1-----------------|--3-----------------|--
G|--------------2--4--|--------------2--0--|--------0--2-----0--|--------0-----------|-----------------0-----|--------4-----------|-----------2--------|--
D|-----2--2-----------|--0-----------------|--------------3-----|-----3-----3--2--0--|--------0-----2-----2--|-----2-----2--------|--------0-----0-----|--
A|--------------------|--------------------|-----3--3-----------|--2-----------------|-----3-----3-----------|--0-----------0-----|--------------------|--
E|--------------------|--------------------|--------------------|--------------------|-----------------------|-----------------3--|-----1-----------1--|--

Stave 5:

E|----------|-----7--8--10--7--|--7--5-----|-----7--5-----7-----|-----------|-----10--------10--12--|--10--8--7------------|-----5--7-----------|-----------|--
B|----------|------------------|-----------|-----------8-----8--|--8--6-----|------------8----------|------------10--8--6--|--8--------5--8--6--|--6--8-----|--
G|--0-------|------------------|-----------|--------------------|-----------|---------7-------------|----------------------|--------------------|-----------|--
D|----------|-----5------------|-----------|--------------------|-----------|-----------------------|----------------------|--------------------|--5--------|--
A|----------|------------------|--8-----8--|--7-----------------|--5--------|-----------------------|----------------------|--5-----------------|--------5--|--
E|-----3----|--3---------------|-----------|--------------------|--------8--|--7--------------------|--8-------------------|--------------------|-----------|--

Stave 6:

E|-----------------------------|-----------0--1--5--3--1--0--|-----3--1--3-----0-----------|-----------------------------|-----------------------------|--
B|--------------------0--1--0--|-----2--4--------------------|--------------2-----3--1--0--|-----3--2--3-----1--0--------|--------------0--------------|--
G|--------------0--2-----------|-----------------------------|-----------------------------|--------------2--------2-----|-----0-----0-----2--0--------|--
D|-----0--2--3-----------------|--3--------------------------|--2--------------------------|--0-----------------------3--|--------3--------------3--0--|--
A|-----------------------------|-----------------------------|-----------------------------|-----------------------------|--2--------------------------|--
E|--3--------------------------|-----------------------------|-----------------------------|-----------------------------|-----------------------------|--

Stave 7:

E|-----------------------------|-----------------------3--1--|--1----3--|--------------------------|--------------------------|--------------------------|--
B|-----------0--1--0-----------|--------0--1--0-----0--------|--0-------|-----------0--------------|-----------0--------------|-----------0--------0-----|--
G|--------0-----------0--------|-----2-----------2-----------|----------|-----0--------0-----0-----|-----0--------0-----0-----|-----0--------0--------0--|--
D|-----2-----------------2-----|--0--------------------------|--0-------|--------0--------0-----0--|--------0--------0-----0--|--------0-----------------|--
A|--3-----------------------3--|-----------------------------|----------|--------------------------|--------------------------|-----------------4--------|--
E|-----------------------------|-----------------------------|--3-------|--3-----------------------|--1-----------------------|--0-----------------------|--

Stave 8:

E|-----------------0--------|-----------------0--------|-----------------0--------|--------------------------|----------|--
B|-----------0--------0-----|-----------0--------0-----|-----------0--------0-----|-----------0--------------|-----0----|--
G|-----0--------0--------0--|-----0--------0--------0--|-----0--------0--------0--|-----0--------0-----0-----|-----0----|--
D|--0-----0-----------------|--------0-----------------|--------0-----------------|--0-----0--------------0--|-----0----|--
A|-----------------3--------|--2-----------------------|--3-----------------------|-----------------0--------|----------|--
E|--------------------------|--------------------------|--------------------------|--------------------------|--3-------|--

Stave 9:

E|--------------------------------------|--------------------------------------|--------------------------------------|--------------------------------------|--
B|--------0-----------0-----------0-----|--------0-----------3-----------0-----|--------0-----------3-----------1-----|--------1-----------0-----------------|--
G|-----0-----0--0--0-----0--0--0-----0--|-----0-----0-----0-----0-----0-----0--|-----0-----0-----0-----0-----0-----0--|-----0-----0-----0-----0--------2-----|--
D|--------------------------------------|--------------3-----------3-----------|--------------2-----------2-----------|--------------0--------------0-----0--|--
A|--------------------------------------|--------------------------------------|--------------------------------------|--------------------------3-----------|--
E|--3-----------------------------------|--3-----------------------------------|--3-----------------------------------|--3-----------------------------------|--

Stave 10:

E|--------------------------------------|--------------------------------------|--------------------------------------|---------|--|--
B|--------------------------------------|--------------------------------------|--------------------------------------|---------|--|--
G|--------0-----------2-----------0-----|--------2-----------2-----------2-----|--------0-----------0-----------0-----|--0------|--|--
D|-----0-----0-----0-----0-----0-----0--|-----0-----0-----0-----0-----0-----0--|-----3-----3--0--3-----3--0--3-----3--|--3------|--|--
A|--------------2-----------2-----------|--------------3-----------3-----------|--------------------------------------|--5------|--|--
E|--3-----------------------------------|--3-----------------------------------|--3-----------------------------------|--3------|--|--

http://www.guitartabcreator.com
Guitar Tab Creator is intended to store guitar tab created through the tool. It currently does not support in-line text editing. Any text you place in here will be lost. If you need to comment on your tab, please use the "Tab Notes" section located below.