Sound will begin in 5 seconds

Alesso - Heroes (Guitar Cover)

01234567891011121314151617181920212223
E
B
G
D
A
E
B
0 1 2 3 4 5 6 7 8 9 10 11 12 13 14 15 16 17 18 19 20 21 22 23
Song Science #1: How Pros Use 6 Chords to Write Hit Songs
(/) Slide Up  (\) Slide Down  (h) Hammer On  (p) Pull Off  (b) Bend (r) Release (v) Vibrato

Stave 1:

E|----------8--8/10\8------1/10-------------------------------------------------------------------------
B|--10-----------------10----------8/10--10--10--10--10--8\6----8/10--10--10--10--10--10b11-------------
G|------10-----------------------------------------------------------------------------------12/14--14--
D|------------------------------------------------------------------------------------------------------
A|------------------------------------------------------------------------------------------------------
E|------------------------------------------------------------------------------------------------------

Stave 2:

E|-------------------------------------------------------------------------
B|--8/10--10--10--10--10--8\6----8/10--10--10--10--10--10b11---------------
G|------------------------------------------------------------12/14--14\1--
D|-------------------------------------------------------------------------
A|-------------------------------------------------------------------------
E|-------------------------------------------------------------------------

Stave 3:

E|--13----------13------------13----------13-----------------------------------------------------
B|------13------------13----------13------------13-----------------------------------------------
G|----------10------------10----------10------------10--10--10--10/12----------------------------
D|-----------------------------------------------------------------------------------------------
A|-----------------------------------------------------------------------------------------------
E|-----------------------------------------------------------------------------------------------

Stave 4:

E|--------------------------------------------8/10------------------------------------------------
B|----8--8--8--8--11v--11--10v--10--8v--8--8--------13--10--10--10--11\1--------------------------
G|------------------------------------------------------------------------------------------------
D|------------------------------------------------------------------------------------------------
A|------------------------------------------------------------------------------------------------
E|------------------------------------------------------------------------------------------------

Stave 5:

E|------13----------13------12------12----------------13----------13----------15------15--13--20--
B|----------13--------------------------13--10------------13----------13--------------------------
G|--10----------10------10------10----------------10----------10----------10------10--------------
D|------------------------------------------------------------------------------------------------
A|------------------------------------------------------------------------------------------------
E|------------------------------------------------------------------------------------------------

Stave 6:

E|---------------------------------------------------------------------------
B|----8/10--10--10--10--10--8\6----8/10--10--10--10--10--10b11---------------
G|--------------------------------------------------------------12/14--14\1--
D|---------------------------------------------------------------------------
A|---------------------------------------------------------------------------
E|---------------------------------------------------------------------------

Stave 7:

E|------13----------13----------13----------13-----------------------------
B|----------13----------13----------13----------13-------------------------
G|--------------10----------10----------10----------10--10--10--10/12--12--
D|-------------------------------------------------------------------------
A|-------------------------------------------------------------------------
E|-------------------------------------------------------------------------

Stave 8:

E|-------------------------------------------8/10------------------------
B|----8--8--8--8--11v--11--10v--10v----8--8--------13--10--10--10--11\1--
G|-----------------------------------------------------------------------
D|-----------------------------------------------------------------------
A|-----------------------------------------------------------------------
E|-----------------------------------------------------------------------

Stave 9:

E|--------13----------13------12------12----------------13----------13----------15------15--13--20--
B|------------13--------------------------13--10------------13----------13--------------------------
G|----10----------10------10------10----------------10----------10----------10------10--------------
D|--------------------------------------------------------------------------------------------------
A|--------------------------------------------------------------------------------------------------
E|--------------------------------------------------------------------------------------------------

Stave 10:

E|----------------------------------------------------------------------
B|----------------------------------------------------------------------
G|--------------------------------9b10---------------------------12b13--
D|----10--10/12\10--10\8----8--8--------10--10/12--12----12--12---------
A|----------------------------------------------------------------------
E|----------------------------------------------------------------------

http://www.guitartabcreator.com
Guitar Tab Creator is intended to store guitar tab created through the tool. It currently does not support in-line text editing. Any text you place in here will be lost. If you need to comment on your tab, please use the "Tab Notes" section located below.