Sound will begin in 5 seconds

Plavuša

Chords
01234567891011121314151617181920212223
E
B
G
D
A
E
B
0 1 2 3 4 5 6 7 8 9 10 11 12 13 14 15 16 17 18 19 20 21 22 23
Song Science #1: How Pros Use 6 Chords to Write Hit Songs
(/) Slide Up  (\) Slide Down  (h) Hammer On  (p) Pull Off  (b) Bend (r) Release (v) Vibrato

Stave 1:

E|--------------------------------------------------------------------------------
B|--------------------------------------------------------------------------------
G|--------------------------------------------------------------------------------
D|--------------------------------------------------------------------------------
A|-----------------------------------------3-----3--3-----3--5--3--5--5--3--5--5--
E|--5--3--5--5--3--5--5--3--5--5--3--5--5-----5--------5--------------------------

Stave 2:

E|-----------------------------------------------------------------------------
B|-----------------------------------------------------------------------------
G|-----------------------------------------------------------------------------
D|--------------------------------------------------------------------5-----5--
A|-----------------------------------------3-----3--5--3--5--7--5--7-----7-----
E|--5--3--5--5--3--5--5--3--5--5--3--5--5-----5--------------------------------

Stave 3:

E|---------------------------------------------------------------------------------
B|---------------------------------------------------------------------------------
G|--------------------------------------------------------------------5--7b9--7b9--
D|--------------------------------------------------------------5--7---------------
A|-----------------------------------------3-----3--5--3--5--7---------------------
E|--5--3--5--5--3--5--5--3--5--5--3--5--5-----5------------------------------------

Stave 4:

E|--------------------------------------------------------------------------------------
B|--------------------------------------------------------------------------------------
G|--------------------------------------------------------------------------------------
D|--------------------------------------------7--7--------------------------------------
A|--7-----------3--------7--------3-----------5--5--3--5--3--5--7--5--3--5--3--2h3h2h3--
E|--5--5--3--5-----5--3--5--3--5-----5--3--5--------------------------------------------

Stave 5:

E|-------------------------------------------------------------------------------------------
B|-------------------------------------------------------------------------------------------
G|-------------------------------------------------------------------------------------------
D|-----------------------------------------7--7----------------------------------------------
A|--7--------3--------7--------3-----------5--5--3--5--3--5--5/7--5--3--5--3h5h3h5--2h3h2h3--
E|--5--3--5-----5--3--5--3--5-----5--3--5----------------------------------------------------

Stave 6:

E|----------------------------------------------------------------------------
B|----------------------------------------------------------------------------
G|-----------5-----------------5-----------7--7--5--7--5--7-8\7--5--7-8\7--5--
D|--7--5--7--5--7--5--7--5--7--5--7--5--7--7--7--5--7--5--7/8-7--5--7/8-7--5--
A|--7--5--7-----7--5--7--5--7-----7--5--7-------------------------------------
E|----------------------------------------------------------------------------

Stave 7:

E|-------------------------------------------------------
B|-------------------------------------------------------
G|--7--7--5--7--5--7--7b8b7--5--7--5h7h5h7h5--4h5h4h5h4--
D|--7--7--5--7--5--7-------------------------------------
A|-------------------------------------------------------
E|-------------------------------------------------------

Stave 8:

E|-----------------
B|-----------------
G|-----------------
D|-----7-----5-----
A|--7--5--5--3--5--
E|--5-----3-----3--

Stave 9:

E|-------------------------------------------------------------------
B|-------------------------------------------------------------------
G|-------------------------------------------------------------------
D|-------------------------------------------------------------------
A|--7--------------------3--5--3--------5-----------5--3--5/7--5--3--
E|--5--5--5--5--5--3--5-----------5--3--3--3--3--3-------------------

Stave 10:

E|-----------------------------
B|-----------------------------
G|-----------------------------
D|--------------------7--7--5--
A|--5-----------5--5--5--5--3--
E|--3--3--3--3--3--3-----------

Stave 11:

E|--------------------------------------
B|--------------------------------------
G|--------------------------------------
D|--------------------7--7--7--7--7--7--
A|--5-----------5--5--5--5--5--5--5--5--
E|--3--3--3--3--3--3--------------------

Stave 12:

E|-----------------------------
B|-----------------------------
G|-----------------------------
D|--------------------7--5--4--
A|--5-----------5--5--5--3--2--
E|--3--3--3--3--3--3-----------

http://www.guitartabcreator.com
Guitar Tab Creator is intended to store guitar tab created through the tool. It currently does not support in-line text editing. Any text you place in here will be lost. If you need to comment on your tab, please use the "Tab Notes" section located below.