Sound will begin in 5 seconds

Bullshit blues

Chords
01234567891011121314151617181920212223
E
B
G
D
A
E
B
0 1 2 3 4 5 6 7 8 9 10 11 12 13 14 15 16 17 18 19 20 21 22 23
Song Science #1: How Pros Use 6 Chords to Write Hit Songs
(/) Slide Up  (\) Slide Down  (h) Hammer On  (p) Pull Off  (b) Bend (r) Release (v) Vibrato

Stave 1:

D|-----------------------|--------------------|-----------0-----|-----------2-----|--
A|-----------------------|--------------------|--1--1-----------|-----0-----0-----|--
F|-----------------------|--------------------|--0-----0--------|--2-----2--2--2--|--
C|-----------5-----------|--------------------|--2-----------2--|--1-----------1--|--
G|--7-----7-----7--5-----|-----5-----4-----2--|--3-----------3--|--2-----------2--|--
D|--0-----------------7--|--6-----5-----3-----|-----------------|-----------------|--

Stave 2:

D|--------------|--------------|--------------|-----------------|--
A|-----------1--|--------------|-----------0--|-----------------|--
F|--0--0--------|--7--------7--|--2--2--------|-----------------|--
C|--2-----2-----|--7--7--------|--1-----1-----|--------7-----7--|--
G|--3-----------|--9-----9-----|--2-----------|--7-----9-----9--|--
D|--------------|--------------|--------------|--0--------------|--

Stave 3:

D|--------------|--------------|--------------|-----------------|--
A|-----------1--|--------------|-----------0--|--------8-----8--|--
F|--0--0--------|--7--------7--|--2--2--------|--------9-----9--|--
C|--2-----2-----|--7--7--------|--1-----1-----|--------9-----9--|--
G|--3-----------|--9-----9-----|--2-----------|--7-----7-----7--|--
D|--------------|--------------|--------------|--0--------------|--

Stave 4:

D|-----------------|--------------|--------------------|--------------------|--
A|-----------1-----|--------------|--------------------|--------------------|--
F|--0--0--------0--|--7--7-----7--|--------------------|--------------------|--
C|--2-----2--------|--7-----7-----|--------5-----------|--------------------|--
G|--3--------------|--9-----------|--7--7-----7--5-----|-----5-----4-----2--|--
D|-----------------|--------------|--0--------------7--|--6-----5-----3-----|--

Stave 5:

D|-----------------|-----------------|--------------------|--------------------|--------------
A|-----------1-----|-----------0-----|--------------------|--------------------|--------------
F|--0--0--------0--|--2--2--------2--|--2-----------------|--2-----------------|--------------
C|--2-----2--------|--1-----1--------|--2--------------2--|--2-----------------|--------------
G|--3--------------|--2--------------|--0--------------0--|--0--------5-----4--|-----2--2--2--
D|-----------------|-----------------|--------------------|--------6-----5-----|--3-----0--0--

http://www.guitartabcreator.com
Guitar Tab Creator is intended to store guitar tab created through the tool. It currently does not support in-line text editing. Any text you place in here will be lost. If you need to comment on your tab, please use the "Tab Notes" section located below.