Sound will begin in 5 seconds

Whole Lotta Love Solo

01234567891011121314151617181920212223
E
B
G
D
A
E
B
0 1 2 3 4 5 6 7 8 9 10 11 12 13 14 15 16 17 18 19 20 21 22 23
Song Science #1: How Pros Use 6 Chords to Write Hit Songs
(/) Slide Up  (\) Slide Down  (h) Hammer On  (p) Pull Off  (b) Bend (r) Release (v) Vibrato

Stave 1:

E|-------------12-------------------------------------|--------------------------------------------|--
B|---------12------15--12-----------------------------|------3-------------------------------------|--
G|--14b16------------------15--14--12--14--12--14b16--|--/4-----4\2p0--2p0--2p0--------------------|--
D|----------------------------------------------------|--------------------------2p0--2p0----------|--
A|----------------------------------------------------|------------------------------------2p0-----|--
E|----------------------------------------------------|-----------------------------------------0--|--

Stave 2:

E|-------------12----------------15----------|-------------------------------|--
B|---------12------15b17--15b17------15b17v--|--17--20b21r20--17------20p17--|--
G|--14b16------------------------------------|--------------------18---------|--
D|-------------------------------------------|-------------------------------|--
A|-------------------------------------------|-------------------------------|--
E|-------------------------------------------|-------------------------------|--

Stave 3:

E|------19b21--19--18--17------------------|----------------------------19------
B|--17---------------------20--21--20--17--|--17--19b21--19b21--19b21v------17--
G|-----------------------------------------|------------------------------------
D|-----------------------------------------|------------------------------------
A|-----------------------------------------|------------------------------------
E|-----------------------------------------|------------------------------------

http://www.guitartabcreator.com
Guitar Tab Creator is intended to store guitar tab created through the tool. It currently does not support in-line text editing. Any text you place in here will be lost. If you need to comment on your tab, please use the "Tab Notes" section located below.