stuff . .

Chords
01234567891011121314151617181920212223
E
B
G
D
A
E
B
0 1 2 3 4 5 6 7 8 9 10 11 12 13 14 15 16 17 18 19 20 21 22 23
(/) Slide Up  (\) Slide Down  (h) Hammer On  (p) Pull Off  (b) Bend (r) Release (v) Vibrato
E|--------2--------2-----2--------0--------0-----0--------0--------0-----0--------0--------0-----0--
B|--4--4-----4--4-----4-----4--4-----4--4-----4-----0--0-----0--0-----0-----4--4-----4--4-----4-----
G|--------------------------------------------------------------------------------------------------x4
D|--------------------------------------------------------------------------------------------------
A|--------------------------------------------------------------------------------------------------
E|--------------------------------------------------------------------------------------------------



E|--------------------------------------------------------------------------------------------------
B|--------------------------------------------------------------------------------------------------
G|--------------5-----------------------5-----------------------5-----------------------5-----------
D|--------3-----------3-----------3-----------3-----------3--------------3--------3-----------3-----x2
A|--5--5-----5-----5-----5--0--0-----0-----0-----0--------------------------------------------------
E|--------------------------------------------------5--5-----5-----5--5-----5--5-----5-----5-----5--



E|----------------------------------------
B|----------------------------------------
G|----------------------------------------
D|-----2-----2--2--2-----------5--5/7--5--
A|--2-----2--2--2--2--3--3--3--3----------
E|--------------------0--0--0-------------
											http://www.guitartabcreator.com
[[],[],[],[],[],[]]

Member for

8 years 7 months
Submitted by n3g4tive z3r0 on Tue, 2011-10-11 01:39