Sound will begin in 5 seconds

Vocalise2

01234567891011121314151617181920212223
E
B
G
D
A
E
B
0 1 2 3 4 5 6 7 8 9 10 11 12 13 14 15 16 17 18 19 20 21 22 23
Song Science #1: How Pros Use 6 Chords to Write Hit Songs
(/) Slide Up  (\) Slide Down  (h) Hammer On  (p) Pull Off  (b) Bend (r) Release (v) Vibrato

Stave 1:

E|--0--2--4--0--------------------7--|--5-----------------5--------4-----|--
B|--2--------0-----2--------4--6-----|-----------2-----2-----------------|--
G|--1--1--1-----2--4-----------6-----|--2--2--2--2-----2--6-----6--2-----|--
D|-----0--0--0-----------------------|-----------4--2--4-----------------|--
A|-----------------4--4--4-----4-----|--4--4--4-----------7--6--7--3--4--|--
E|--0-----------------0--1-----------|--2--------------------------------|--

Stave 2:

E|--2-----5-----------5-----4--2-----|--------5-----------7--5--4-----|--2--4-----5--2-----------0-----5--|--
B|--1--1--1--2-----2--------------5--|--7--------------------2--2-----|-----------------3-----3-----7-----|--
G|--2-----------------6-----6--2-----|--4-----4--6-----6--6-----------|--2--------2--2--2--2--2-----5-----|--
D|--1--1--1--4--2--4-----------------|--4--4--4-----------------------|-----4--------4--4--4--4-----------|--
A|--------------------7--6--7--2--4--|--6--------6--4--6--------4--2--|--4--0--2--3-----2-----------5--7--|--
E|-----------------------------------|-----------------------2--------|-----------------------------------|--

Stave 3:

E|--7-----------------------------7-----|--9-----------------------7--------|--6--4--6--7--------5--4--2-----|--
B|--------------------2-----------------|--------------------------6--------|--5-----------------------------|--
G|-----------------------------------0--|-----0-----0-----------------6--7--|--6--4--6--4--4-----------2--1--|--
D|--9--------------0--2-----2--3--4-----|--6-----------------4--------------|-----------4--4-----------------|--
A|--9--8--7--8-----------2--2-----------|--0-----9-----7--8-----4-----------|--4--------5--------5-----0-----|--
E|--7-----------9-----4-----------------|--------------------6-----4--------|-----------------2--2--4--------|--

Stave 4:

E|--1--0--1--2--------0--------------|--------------------|-----------5--4--5--------2--4--|--
B|-----------------------------3-----|--2-----0-----0-----|-----------2-----2--------------|--
G|--2--0--1--2--------1--2--4--------|-----------2-----1--|-----------------------2--4-----|--
D|--------------4--4--0-----0--0-----|--4--4-----1-----3--|--4-----------------------------|--
A|--4--2-----0--5--5-----------------|--0--2-----3-----4--|--4-----------------------------|--
E|--------------------------4--3--4--|--------------------|--2--2--2--2-----2--2--2--2-----|--

Stave 5:

E|--5--4--2--4--------|--4-----------0--------0---------0--|---------------7--9------------------|--
B|--2-----2--3--5--7--|--5--------3-----7--7-----9---------|--10---------------------------------|--
G|-----4--------6--7--|--4--4--4--4--------------11--7-----|--11-----------------9------6-----4--|--
D|--------------------|-----2--2--2-----7--7-----0---0-----|------7--7--7--7--9-----12-----------|--
A|--------------------|-----------------5--5---------------|--0---4--4--4-----9------------2-----|--
E|--2--2-----2--0-----|--0---------------------------------|---------------9--9--9------3--------|--

Stave 6:

E|-----10------12--14--10-----9------7--5--7--|--9--------7-------------4-----2--4--|--
B|----------------------------10-----9--7-----|--7--7-----------10------0--0--------|--
G|--6--------------14-------------------6-----|--------7----------------3-----------|--
D|---------12--11--12------0------7--9--------|--7--7--9--9-----11--11--------------|--
A|--4----------7--------------9---------------|--9--------0-----9---9---------------|--
E|-----9---------------7-------------0--------|--------7-----7--9-------------------|--

Stave 7:

E|--2-----------------2-----2--0-----0-----------|--2--------------------|--------------------------|--
B|-------0--------------5--------3--------3--5--|--3-----3--------------|-----2-----2--2--2--2--2--|--
G|--2-----------6-----3-----2--1-----1-----3-----|--4-----4-----6-----4--|--2--2-----2--2--2--2--2--|--
D|--0-----0--2--4--5--4--2--0--2--0--------------|--------------7-----6--|--4--------4--------------|--
A|----4-----------------------------4--3--5--3--|--2-----0--2--4--5--4--|--------4-----------------|--
E|----------------------------------------------|-----4-----------------|--2--------------2--------|--

http://www.guitartabcreator.com
Guitar Tab Creator is intended to store guitar tab created through the tool. It currently does not support in-line text editing. Any text you place in here will be lost. If you need to comment on your tab, please use the "Tab Notes" section located below.