Sound will begin in 5 seconds

Indisposition

01234567891011121314151617181920212223
E
B
G
D
A
E
B
0 1 2 3 4 5 6 7 8 9 10 11 12 13 14 15 16 17 18 19 20 21 22 23
Song Science #1: How Pros Use 6 Chords to Write Hit Songs
(/) Slide Up  (\) Slide Down  (h) Hammer On  (p) Pull Off  (b) Bend (r) Release (v) Vibrato

Stave 1:

E|------------6--------------6----------6--6------------6--------------6----------6--6--
B|------------6--------------6----------6--6------------6--------------6----------6--6--
G|------------6--------------6----------6--6------------6--------------6----------6--6--
D|--3------3---------3----3-------3--3--------3------3---------3----3-------3--3--------
A|--3------3---------3----3-------3--3--------3------3---------3----3-------3--3--------
D|--3------3---------3----3-------3--3--------3------3---------3----3-------3--3--------

Stave 2:

E|-----------0--------------0----------0--0------------0--------------0----------0--0--
B|-----------0--------------0----------0--0------------0--------------0----------0--0--
G|-----------0--------------0----------0--0------------0--------------0----------0--0--
D|--5------5---------5----5-------5--5--------5------5---------5----5-------5--5--------
A|--3------3---------3----3-------3--3--------3------3---------3----3-------3--3--------
D|--2------2---------2----2-------2--2--------2------2---------2----2-------2--2--------

Stave 3:

E|--------------0--
B|--------------3--
G|-----------0--0--
D|--------3-----3--
A|-----0-----------
D|--1--------------

Stave 4:

E|-----------------0----------------------0---------10---------12---------15---------13---------12--
B|--------------6----------------------6------------------------------------------------------------
G|-----------0----------------------0-----------10---------12---------14---------12---------12------
D|--------7-----------7----------7-----------0----------0----------0----------0----------0----------
A|-----5----------------------5---------------------------------------------------------------------
D|--0----------------------0------------------------------------------------------------------------

Stave 5:

E|--------------0----------------------0-----
B|-----------------6----------------------6--
G|-----------0--------0-------------0--------
D|--------7----------------------7-----------
A|-----8----------------------8--------------
D|--8----------------------8-----------------

Stave 6:

E|-----------------0----------------------0---------10---------12---------15---------13---------17--
B|--------------6----------------------6------------------------------------------------------------
G|-----------0----------------------0-----------10---------12---------14---------12---------14------
D|--------7-----------7----------7-----------0----------0----------0----------0----------0----------
A|-----5----------------------5---------------------------------------------------------------------
D|--0----------------------0------------------------------------------------------------------------

Stave 7:

E|----------------------------------------------10---------------------
B|----------10---------------10--10-------------10---------------------
G|----------9----------------9---9--------------10---------------------
D|--7--------7-------7--------7---7-----0--------0-------0------10--10--
A|--8----------------8------------------7----------------7------10--10--
D|--0----------------0------------------8----------------8------10--10--

Stave 8:

E|---------0-------------0----------------------------------------------------------------------------------------
B|---------6-------------6---------------------------------------------15-----------------------------------------
G|--7------7------7------7------10------9------14------13--------------14-----------------------------------------
D|--0------0------0------0-------------------------------------0-------0-------0----------------------------------
A|--5-------------5-------------8-------7------12------11------12------12------12------------------8------10--10--
D|--0-------------0--------------------------------------------13--------------13------13--12--13--8------10--10--

http://www.guitartabcreator.com
Guitar Tab Creator is intended to store guitar tab created through the tool. It currently does not support in-line text editing. Any text you place in here will be lost. If you need to comment on your tab, please use the "Tab Notes" section located below.