Sound will begin in 5 seconds

Hotel California Solo - part one

01234567891011121314151617181920212223
E
B
G
D
A
E
B
0 1 2 3 4 5 6 7 8 9 10 11 12 13 14 15 16 17 18 19 20 21 22 23
Song Science #1: How Pros Use 6 Chords to Write Hit Songs
(/) Slide Up  (\) Slide Down  (h) Hammer On  (p) Pull Off  (b) Bend (r) Release (v) Vibrato

Stave 1:

E|-----------------------------------------------------------
B|---------10h12--12b--10h12----------7----------------------
G|--10/11---------------------9--7h9-----7-------------------
D|------------------------------------------9--9h11p9--7--7--
A|-----------------------------------------------------------
E|-----------------------------------------------------------

Stave 2:

E|---------------------------------------------10-----------------
B|-------7-------------------7--------------10b----10br7--10--8v--
G|--7h9-----7-----------7h9-----7---------------------------------
D|-------------9--7--9-------------9--7--9------------------------
A|----------------------------------------------------------------
E|----------------------------------------------------------------

Stave 3:

E|--7-----10b10--10b--7-----10-------------10----------------
B|-----7-----------------10b----10b--8-----------------------
G|--------------------------------------9------9b7--7--6--7--
D|-----------------------------------------------------------
A|-----------------------------------------------------------
E|-----------------------------------------------------------

http://www.guitartabcreator.com
Guitar Tab Creator is intended to store guitar tab created through the tool. It currently does not support in-line text editing. Any text you place in here will be lost. If you need to comment on your tab, please use the "Tab Notes" section located below.