Sound will begin in 5 seconds

Revvin' up the METAL chair

01234567891011121314151617181920212223
E
B
G
D
A
E
B
0 1 2 3 4 5 6 7 8 9 10 11 12 13 14 15 16 17 18 19 20 21 22 23
Song Science #1: How Pros Use 6 Chords to Write Hit Songs
(/) Slide Up  (\) Slide Down  (h) Hammer On  (p) Pull Off  (b) Bend (r) Release (v) Vibrato

Stave 1:

E|--------------------------------------------------------------------
B|-----------------------------------------------------------------12/
G|-----------------------------------------------------------------12-
D|--2--2--x--x--x--x--x--x--------------5--4--4--------------------12-
A|--2--2--x--x--x--x--x--x--3--2--------5--4--4-----------------------
E|--------------------------------3--0--3--2--2--0--0--0--0--0--0-----

Stave 2:

E|------------------------------------------------
B|--------------------------------------------12--
G|--------------------------------------------12--
D|--------------8--------4\5-----8\7-----4\5--12--
A|--------------8--------4-5-----8-7-----4-5------
E|--0--0--0--0--6--0--0--2-5--0--6-5--0--2-3------

Stave 3:

E|--------------------------------------------------------------------------------
B|--------------------------------------------------------------------------------
G|--------------12--------9/8-----------------------------------------------------
D|--------------12--------9-8-----12/11-----12--------------8--------4\5-----8/7--
A|------------------------7-6--0--12-11-----12--------------8--------4-5-----8-7--
E|--0--0--0--0------0--0----------10-9---0------0--0--0--0--6--0--0--2-3--0--6-5--

http://www.guitartabcreator.com
Guitar Tab Creator is intended to store guitar tab created through the tool. It currently does not support in-line text editing. Any text you place in here will be lost. If you need to comment on your tab, please use the "Tab Notes" section located below.