Sound will begin in 5 seconds

Rude by Magic

01234567891011121314151617181920212223
E
B
G
D
A
E
B
0 1 2 3 4 5 6 7 8 9 10 11 12 13 14 15 16 17 18 19 20 21 22 23
Song Science #1: How Pros Use 6 Chords to Write Hit Songs
(/) Slide Up  (\) Slide Down  (h) Hammer On  (p) Pull Off  (b) Bend (r) Release (v) Vibrato

Stave 1:

E|-------|-------|---------|-------|-
B|-------|-------|---------|-------|-
G|-------|-------|---------|-------|-
D|--4--4-|--6--6-|--11--11-|--8--8-|-
A|--4--4-|--6--6-|--11--11-|--8--8-|-
E|--2--2-|--4--4-|--9---9--|--6--6-|-

Stave 2:

E|-----------------|-----------------|-------------------------|-----------------|---
B|-----------------|-----------------|-------------------------|-----------------|---
G|-----------------|-----------------|-------------------------|-----------------|---
D|-4-4-4-4-4-4-4-4-|-6-6-6-6-6-6-6-6-|-11-11-11-11-11-11-11-11-|-8-8-8-8-6-6-6-6-|---
A|-4-4-4-4-4-4-4-4-|-6-6-6-6-6-6-6-6-|-11-11-11-11-11-11-11-11-|-8-8-8-8-6-6-6-6-|---
E|-2-2-2-2-2-2-2-2-|-4-4-4-4-4-4-4-4-|-9--9--9--9--9--9--9--9--|-6-6-6-6-4-4-4-4-|---

Stave 3:

E|----------------------|------------------------|-
B|-9-9-9-9-9------------|-9-9-9-9-9--------------|-
G|-----------6-6-10-8-6-|-----------6-6-6/10-8-6-|-
D|----------------------|------------------------|-
A|----------------------|------------------------|-
E|----------------------|------------------------|-

Stave 4:

E|----------------16v--14-------------|-----------------------------------------|-
B|----------14-16---------16-14-16----|-7-7-6-7-6-7-6-7-6-----------------------|-
G|-11/13-15------------------------15-|-6-6-6-6-6-6-6-6-6-----------------------|-
D|------------------------------------|-8-8-6-8-6-8-6-8-6-4/6-6-6-6-------------|-
A|------------------------------------|-----------------------------4-4-4/8-6-4-|-
E|------------------------------------|-----------------------------------------|-

Stave 5:

E|----------------------------------|--------------------|-
B|----------------------------------|--------------------|-
G|-13-13-13-13-13-------------------|-13-13/15-13h15-18v-|-
D|----------------11-11-11/15-13-11-|--------------------|-
A|----------------------------------|--------------------|-
E|----------------------------------|--------------------|-

http://www.guitartabcreator.com
Guitar Tab Creator is intended to store guitar tab created through the tool. It currently does not support in-line text editing. Any text you place in here will be lost. If you need to comment on your tab, please use the "Tab Notes" section located below.