Sound will begin in 5 seconds

Will's Song

01234567891011121314151617181920212223
E
B
G
D
A
E
B
0 1 2 3 4 5 6 7 8 9 10 11 12 13 14 15 16 17 18 19 20 21 22 23
Song Science #1: How Pros Use 6 Chords to Write Hit Songs
(/) Slide Up  (\) Slide Down  (h) Hammer On  (p) Pull Off  (b) Bend (r) Release (v) Vibrato

Stave 1:

E|-----------------------5--7--8--10--7--------
B|--------------------5------------------8-----
G|-----------------5------------------------7--
D|--------------7------------------------------
A|-----------7---------------------------------
E|--3--5--8------------------------------------

Stave 2:

E|-----------------------------10--12--13--15--12----------
B|-------------------------10----------------------13------
G|---------------------10------------------------------12--
D|-----------------12--------------------------------------
A|-------------12------------------------------------------
E|--9--10--13----------------------------------------------

Stave 3:

E|--12--13------------------------------------------------------------------------------
B|----------13------13----------------------------------13--12----------12--------------
G|--------------15------14--12----------------------12----------14--12------14--12------
D|------------------------------15--12--14------14----------------------------------15--
A|------------------------------------------15------------------------------------------
E|--------------------------------------------------------------------------------------

http://www.guitartabcreator.com
Guitar Tab Creator is intended to store guitar tab created through the tool. It currently does not support in-line text editing. Any text you place in here will be lost. If you need to comment on your tab, please use the "Tab Notes" section located below.