Sound will begin in 5 seconds

Catnap

01234567891011121314151617181920212223
E
B
G
D
A
E
B
0 1 2 3 4 5 6 7 8 9 10 11 12 13 14 15 16 17 18 19 20 21 22 23
Song Science #1: How Pros Use 6 Chords to Write Hit Songs
(/) Slide Up  (\) Slide Down  (h) Hammer On  (p) Pull Off  (b) Bend (r) Release (v) Vibrato

(W|WW) Whole (H|HH) Half (Q|QQ) Quarter (E|EE) 8th (S|SS) 16th (T|TT) 32nd (X|XX) 64th

Stave 1:
t: EEEE E E EEEE E E E E E EEE E E E
D|-------------------------0--|------------------|-
A|-------------------------0--|------------------|-
F|-------------------------3--|---------------3--|-
C|-------------------------0--|------------------|-
G|-------------------------1--|---------------1--|-
D|-4h7p4p0-0-0-0h1h4p1-0-0-0--|-0-0-1h4p1-0-0-0--|-

Stave 2:
t: EEEEE E E EEEEE E E E E E EEE E E E
D|--------------------------------|------------------|-
A|-----------------------------0--|------------------|-
F|-----------------------------3--|---------------6--|-
C|-----------------------------2--|------------------|-
G|-----------------------------1--|---------------4--|-
D|-0h1h4p1p0-0-0-0h1h3p1p0-0-0-0--|-0-0-1h3p1-0-0-0--|-

Stave 3:
t: EEE E E EEE E E E E E EEEE E E E
D|------------------------|--------------------|-
A|------------------------|--------------------|-
F|---------------------6--|-----------------9--|-
C|---------------------0--|--------------------|-
G|---------------------4--|-----------------7--|-
D|-4h6p4-3-0-4h6p4-3-0-3--|-0-0-3h6p3p0-0-0-0--|-

Stave 4:
t: E E E E E E E E E E E EE E E E E E
D|---------5-5---|---------9--|---------8\|-
A|---------5---5-|---------9--|---------7-|-
F|---------7-----|---------9--|---------9-|-
C|---------7-----|---------11-|---------9-|-
G|---------5-----|---------11-|---------0-|-
D|-0-0-0-0-5-----|-0-0-0-0-9--|-0-0-0-0---|-

Stave 5:
t: W W W W W W W W W W W W W W W W W W W W W W W W W W W
D|---------|---------|-----------|-----------|---------|-------------|-
A|---------|---------|-----------|-----------|---------|-------------|-
F|---------|---------|-----------|-----------|---------|-------------|-
C|---------|---------|-----------|-----------|---------|-------------|-
G|---------|---------|-----------|-----------|---------|-------------|-
D|-0-0-0-0-|-0-0-0-0-|-0-0-0-0---|-0-0-0-0-0-|-0-0-0-0-|-0-0-0-0-0-0-|-

http://www.guitartabcreator.com
Guitar Tab Creator is intended to store guitar tab created through the tool. It currently does not support in-line text editing. Any text you place in here will be lost. If you need to comment on your tab, please use the "Tab Notes" section located below.