Sound will begin in 5 seconds

1

01234567891011121314151617181920212223
E
B
G
D
A
E
B
0 1 2 3 4 5 6 7 8 9 10 11 12 13 14 15 16 17 18 19 20 21 22 23
Song Science #1: How Pros Use 6 Chords to Write Hit Songs
(/) Slide Up  (\) Slide Down  (h) Hammer On  (p) Pull Off  (b) Bend (r) Release (v) Vibrato

Stave 1:

D|----------------|----------------|----------------|--------------------------|--
A|----------------|--8-------------|----------------|--------------------------|--
F|----------------|--0-------------|----------0-----|--7--9-----9--0-----0-----|--
C|-------9-----9--|----------9-----|-------7-----7--|--------0--------------9--|--
G|--7-------7-----|-------7-----7--|--5-------------|--5--7-----------7--------|--
D|----------------|----------------|----------------|--------------------------|--

Stave 2:

D|---------------------------|-------------------------|--
A|---------------0-----------|-------------3--------3--|--
F|------------------0-----0--|----------------0--------|--
C|---------4-----------------|-------4-----------4-----|--
G|------------2--------2-----|----------2--------------|--
D|--0h3p0--------------------|--3p0--------------------|--

Stave 3:

D|---------------0-----------|--
A|------------------3-----3--|--
F|---------0-----------2-----|--
C|------------4--------------|--
G|--0h2h3--------------------|--
D|---------------------------|--

http://www.guitartabcreator.com
Guitar Tab Creator is intended to store guitar tab created through the tool. It currently does not support in-line text editing. Any text you place in here will be lost. If you need to comment on your tab, please use the "Tab Notes" section located below.